Song name
# A B C D E F G H I J K L M N O P Q R S T U V W X Y Z

Shed Seven - Chasing Rainbows tab

-------------------------------------------------------------------------------
			     CHASING RAINBOWS - Shed Seven
-------------------------------------------------------------------------------
Tabbed by: James Foster
Email: tamworth_fan_james@hotmail.com

Tuning: Standard

Having seen many versions of this songs available on the net,
I personally think this is closer than any other versions (as
it is roughly what Joe Johnson/Paul Banks played live!).  I
did see a version similar to this, but have been unable to
find it since, so I've decided to try to recreate it!

Intro/Verse:

e-9-----9---12--|
B-9h10--10--10--|
G-9-----9---9---|  x2
D-9h11--11--11--|
A-9-----9---9---|
E---------------|

e-------------------------------------------0-|
B-10----10--9h10--10--9--9h10--9--9h10--10--0-|
G-9h11--9---9-----9---9--9-----9--9-----9---1-|
D-9-----9---9-----9---9--9-----9--9-----9---2-|
A-------------------------------------------2-|
E-------------------------------------------0-|

Pre-chorus:

e-------------------------------0-----------------|
B----------------------------------0--------------|
G-------------------------------------0-----------|
D------2-1-------------------------------2--2--2--|
A-2h4-------2--2/4--4--4--2--2--------------------|
E-------------------------------------------------|

e--------------------------------------------------------------|
B--------------------------------------------------------------|
G--------------------------------------------------------------|
D------2-1-----------------------------------------------------|
A-2h4-------2--2/4--4--4--2--2h4--2--4--4/6--4--6--6/7--6--7/9-|
E--------------------------------------------------------------|

Chorus:

E         B            C#m      A
I could deny, but I'll never realise
         E               B
I'm just chasing rainbows

e------0-----------------0-----------------|
B------2---2-------3-----2---2-------3-----|
G------2-----2-------2---2-----2-------2---|
D------2-2-----2h4-----4-2-2-----2h4-----4-|
A------0-----------------0-----------------|
E------------------------------------------|
All my life

Solo:

e-----------------------------------------------------------|
B-----------------------------------------------------------|
G------9h11------9h11-11-11-11-9-9-8-8----------------------|
D-9h11------9h11-----------------------9-9------------------| x2
A------------------------------------------11-11-11/12-11-9-|
E-----------------------------------------------------------|

e--------------------------------------------------------|
B--------------------------------------------------------|
G----------------9-11-11-11-9-9-8-8----------------------|
D------9h11-9h11--------------------9-9------------------|
A-9h11----------------------------------11-11-11/12-11-9-|
E--------------------------------------------------------|

e------------------------------------------------------------|
B-----------9\-----------9\-------------------------------12-|
G-----------9\-----------9\-9-9h11-9-9-9h11-9-9-9h11-9-11----|
D------9h11-9\------9h11-9\----------------------------------|
A-9h11---------9h11------------------------------------------|
E------------------------------------------------------------|

Song Order:
Intro/Verse x2
Pre-chorus
Chorus x2
Intro/Verse x2
Pre-chorus
Chorus x4
Solo
Chorus x6

e---------|
B-2-4-4h5-|
G---------|
D---------|
A---------|
E---------|

| /  slide up
| \  slide down
| h  hammer-on
| p  pull-off
| ~  vibrato
| +  harmonic
| x  Mute note
===============================================================================
Tap to rate this tab
# A B C D E F G H I J K L M N O P Q R S T U V W X Y Z