Song name
# A B C D E F G H I J K L M N O P Q R S T U V W X Y Z

Shed Seven - Going For Gold tab

Taken from another website so thought i would post it up.....

Chords Used: A  A/D   G  D  E  F#m  F Bm


Opening riff:

                                 A         A/D

      |     |     |    |      | | | |    |  | |  |
E---------------------------|---------|------------|-
B---3/5--3--2-h-3--2--------|-----2---|------3-----|-
G---4/6--4--2-h-4--2--------|-------2-|-----2--2---|-
D----------------------4--2-|---2-----|--2h4-----4-|-
A---------------------------|-0-------|------------|-
E---------------------------|---------|------------|-



   A		  A/D 	    A      A/D        A     A/D
  					  (strum)
    | | | |    |  | |  |    I    never said never ever...
E-----------|------------|---------------|--------------|
B-------2---|------3-----|--2--2---3--3--|---2---2--3--3|
G---------2-|-----2--2---|--2--2---2--2--|---2---2--2--2|
D-----2-----|--2h4-----4-|--2--2---4--4--|---2---2--4--4|
A---0-------|------------|--0--0---0--0--|---0---0--0--0|
E-----------|------------|---------------|--------------|


G | D | G             D                  A     A/D  A A/D
         You took the words right out of my mouth

A       A/D...
Is the sea or sunshine (have you been told) the sea is
your lifeline (going for gold) you took the words right out of my mouth

Bridge:

E E  E E   F#m  F  G  A                             F#m  F  G  A

                        Time and time and time again

                       F#m  F  G  A                          Bm
I look to me my only friend         Time and time and time again

D                          A   A/D  A  A/D                   Bm
   Are you here for my pleasure       or are you going for gold

D                     E   E7(d bass)  E6(c# bass)  E(b bass)  A...
   Are you going for gold


Back to A,A/D etc.for the second verse and that's more or less it.
There is a slight variation on the riff, played after the second verse
shown here.

   | | |    |        | | |      |
E-----------------|-------------------|----|
B--2-------3------|--2-------3------5-|----|  
G----2----2--2----|----2----2------4--|----|  
D------2h4-----4--|------2h4----4/6---|----|
A-----------------|-------------------|----|
E-----------------|-------------------|----|
Tap to rate this tab
 
# A B C D E F G H I J K L M N O P Q R S T U V W X Y Z