Song name
# A B C D E F G H I J K L M N O P Q R S T U V W X Y Z

Sheep - Shes Out There Somewhere tab

BAND:Sheep
TITLE:She's out there somewhere
WROTE BY:Martin Shrewsbury and Brian Tooley

intro/verse
e------------3----2-----]
b--1----1----3----3-----]
g--2----0----0----2-----]
d--2----2----0----------]
a-------3----2----------]
e------------3----------]
   Am   C    G    D
(the struming is like the song cover me by CANDLEBOX)

chorus
e--3------2-----------]
b--3------3------1----]
g--0------2------0----]
d--0-------------2----]
a--2-------------3----]
e--3------------------]
   G      D      C
(the srumming is the same as the begining)
   
Tap to rate this tab
# A B C D E F G H I J K L M N O P Q R S T U V W X Y Z