Song name
# A B C D E F G H I J K L M N O P Q R S T U V W X Y Z

Sheila Divine - Automatic Buffalo tab

Intro:

----------2--------------|
----------4----12-7  <---| occasionally
--3---1---4--------------|
--2---2---4--------------|
--2---2---2--------------|
----------2--------------|
Almost always played, except chorus

Bassriff:

---------------------|
---------------------|
---------------------|
---------------------|
---------------------|
-8-5-0-3-0---7-10-11-|
Tap to rate this tab
# A B C D E F G H I J K L M N O P Q R S T U V W X Y Z