Guitaretab - guitar tabs
Song name
# A B C D E F G H I J K L M N O P Q R S T U V W X Y Z

Sheila On 7 - Mari Bercinta tab


   B               C                 D               E
Eb--------------------------------------------------------------------
Bb--------------------------------------------------------------------
Gb------0-------0-------0--------0-------0-------0-------0-------0----
Db----0---0---0---0---0---0----0---0---0---0---0---0---0---0---0---0--
Ab-----------------------------------5-------5-------7-------7--------
Eb--7-------7-------8--------8----------------------------------------


Throughout the wohole song except for chorus:



A        C#m
Lihat dirimu
F#m           A
Semakin jauh mengayuh
A         C#m    
Lewati segala tujuan 
F#m           D
hidup yang mungkin



 2x



Eb--------------------------------------
Bb----------12-11-12-12----------7------
Gb-----9-8------------------9-8----9-8--
Db-9-9------------------9-9------------- 2x
Ab--------------------------------------
Eb--------------------------------------

[ Tab from: http://www.guitaretab.com/s/sheila-on-7/48997.html ]
Eb---------------------------------------------------------
Bb---------------------------------------------------------
Gb----------------------------------8-11-11-11-11-11-11----
Db-------------------9-9-9-9-9-9-11------------------------
Ab----9-9-9-9-9-9--11--------------------------------------
Eb-11------------------------------------------------------


Eb-------------------------------------------------------------
Bb-----------------------------------12-12-12-12-119~---------
Gb--7/8-11-8----8------7/8-11-11-11-------------------10-10-10-
Db-----------11----9-11----------------------------------------
Ab-------------------------------------------------------------
Eb-------------------------------------------------------------


 4x

   B               C                 D                               G
Eb-------------------------------------------------------------------3-
Bb-------------------------------------------------------------------3-
Gb------0-------0-------0--------0-------0-------0-------0-------0---0-
Db----0---0---0---0---0---0----0---0---0---0---0---0---0---0---0---0-0-
Ab-----------------------------------5-------5-------5------5--------2-
Eb--7-------7-------8--------8---------------------------------------3-


- end of tab
Related for Mari Bercinta tab