Song name
# A B C D E F G H I J K L M N O P Q R S T U V W X Y Z

Shellac - Dog And Pony Show tab

"Dog and Pony Show" by Shellac
from Action Park
Tabbed by Mr. Cancelled (dopasaurusrex@gmail.com)


Drop D tuning (e,B,G,D,A,D)

Verse
e------------------------------------|
b(6)(6)---(6)---(6)(6)---(6)---------|
g-7--7-----7-----7--7-----7----------|
d-7--7-----7-----7--7-----7----------|
a-5--5-----5-----5--5-----5----------|
d------0-0----0-------0-0----0-------|
       . .    .       . .    .

e------------------------------------|
b(6)(6)---(6)---(6)(6)------(7)\-----|
g-7--7-----7-----7--7--------8-\-----|
d-7--7-----7-----7--7--------8-\-----|
a-5--5-----5-----5--5--------6-\-----|
d------0-0----0-------0-0-0----------|
       . .    .       . . .

e------------------------------------|
b(4)(4)---(4)---(4)(4)---(4)---------|
g-5--5-----5-----5--5-----5----------|
d-5--5-----5-----5--5-----5----------|
a-3--3-----3-----3--3-----3----------|
d------0-0----0-------0-0----0-------|
       . .    .       . .    .

e------------------------------------|
b(4)(4)-------(2)/-------------------|
g-5--5---------3-/-------------------|
d-5--5---------3-/-------------------|
a-3--3---------1-/-------------------|
d------0-0-0-0-----------------------|
       . . . .

Occasionally, Steve will change it up and do this...
e------------------------------------|
b(6)(6)(6)(6)(6)--(6)(6)-------------|
g-7--7--7--7--7----7--7--------------|
d-7--7--7--7--7----7--7--------------|
a-5--5--5--5--5----5--5--------------|
d-0--0--0--0--0----0--0--------------|
...before going back to the regular 3rd & 4th bars (include the slide from the sixth 
chord in this variation).

Chorus
e------------------------------------|
b------------------------------------|
g------------------------------------|
d-3-3-0-2-2-2r-----------------------|
a-3-3-0-2-2-2r--(play around with the|
d-3-3-0-2-2-2r---fretboard)----------|

After this, they play the first riff of the chorus in various time signatures, so you'll 
to figure that out yourself.


Outro
e------------------------------------|
b------------------------------------|
g-7-7-7-7-7r---7-7-7-7-7r------------|
d-7-7-7-7-7r---7-7-7-7-7r------------|
a-5-5-5-5-5r---5-5-5-5-5r------------|
d------------------------------------|

e------------------------------------|
b------------------------(7)\--------|
g-7-7-7-7-7r---7-7-7-7-7--8-\--------|
d-7-7-7-7-7r---7-7-7-7-7--8-\--------|
a-5-5-5-5-5r---5-5-5-5-5--6-\--------|
d------------------------------------|

Close on...
e------------------------------------|
b------------------------------------|
g-7----------------------------------|
d-7----------------------------------|
a-5----------------------------------|
d------------------------------------|
...and let it ring.

By the way, have fun trying to replicate Steve Albini's guitar tone.
Tap to rate this tab
# A B C D E F G H I J K L M N O P Q R S T U V W X Y Z