Song name
# A B C D E F G H I J K L M N O P Q R S T U V W X Y Z

Shellac - Mama Gina tab

Drop-D tuning.


-0-0-0-0--0-0-0-0-0-0-0-7-0-0-0--0--0--0--|
-5-5-5-5--5-6-6-5-5-6-6-0-0-3-5--13-12-11-|
------------------------------------------|
------------------------------------------|
------------------------------------------|
------------------------------------------|

Rock-out!!!!!

---------------------------------------------------|
---------------------------------------------------|
---------------------------------------------------|
-6--9--4--7--3--5--2--2--2--2----------------------|
---------------------------------------------------|
-6--9--4--7--3--5--2--2--2--2----------------------|
Tap to rate this tab
 
# A B C D E F G H I J K L M N O P Q R S T U V W X Y Z