Song name
# A B C D E F G H I J K L M N O P Q R S T U V W X Y Z

Shellshag - Face To Face tab

-------------------------------------------------------------------------------
                            Face to Face - Shellshag
-------------------------------------------------------------------------------
Tabbed by: Frank Pongratz
E-mail: fpongratz@hotmail.com
Band official website: http://shellshag.blogspot.com/
Label: Don Giovanni Records
Tuning: Standard

Intro
e|--------------------------------------------------------------------------------|
B|--------------------------------------------------------------------------------|
G|--4-----------------------------------------------------------------------------|
D|--4--x10----6--------2--------4-------------------------------------------------|
A|--2---------6--x10---2--x10---4--x10--------------------------------------------|
E|------------4---------0--------2------------------------------------------------|

Verse into chorus
e|--------------------------------------------------------------------------------|
B|--------------------------------------------------------------------------------|
G|--4-----------------------------------------------------------------------------|
D|--4--x20---6---------2--------4-------------------------------------------------|
A|--2--------6--x20----2--x10---4--x10--------------------------------------------|
E|-----------4---------0---------2------------------------------------------------|

And that's it! Really easy to learn by ear but I still wanted to put it up anyway so it 
may spread easier, great band, great song, and killer album!

************************************

| /   slide up
| \   slide down
| h   hammer-on
| p   pull-off
| ~   vibrato
| +   harmonic
| x   Mute note
| b   Bend
| pb  Pre-bend
| br  Bend release
| pbr Pre-bend release
| brb Bend release bend

************************************
Tap to rate this tab
 
# A B C D E F G H I J K L M N O P Q R S T U V W X Y Z