Song name
# A B C D E F G H I J K L M N O P Q R S T U V W X Y Z

Sherwood Schwartz - The Ballad Of Gilligans Isle tab

-------------------------------------------------------------------------------
                             The Ballad of Gilligan's Isle
-------------------------------------------------------------------------------
Tabbed by:TrevorRyAN

Tuning:E A D G B e

e|------------|-----------------------------------------------------------|
B|------------|-----------------------------------------------------------|
G|----2-------|O---------------2--------2-----------2---2-----------------|
D|------------|O------0---------------------------------------------------|
A|------------|-----------------------------------------------------------|
E|------------|-----------------------------------------------------------|

e|-------------------------------------------------------------------------|
B|-------------------------------------------------------------------------|
G|-------0--------------------------------------------------2---2---2---2--|
D|-------------------2------------------------------0----------------------|
A|-----------------------------3----3--------------------------------------|
E|-------------------------------------------------------------------------|

e|---------------------------------------------------------------------------|
B|---------------------------------------------------------2------2--------|
G|-----0----------------------------2---2---2-----0----------------------0-|
D|-----2----------2---------0----------------------------------------------|
A|-------------------------------------------------------------------------|
E|-------------------------------------------------------------------------|

e|------------------------------------------------------------|Play2nd time|
B|------------------------------------------------------------|------------|
G|-------------------------------------------------2--------O-|------------|
D|-----3-----3-------2-------------------0------------------O-|----0-------|
A|---------------------------3--------------------------------|------------|
E|------------------------------------------------------------|------------|

e|-------------------------------------------------------------------------|
B|-------------------------------------------------------------------------|
G|----------------------------------------------------2---2---2---2------0-|
D|-0------3------2-------------0----------------0--------------------------|
A|----------------------3---------------3----------------------------------|
E|-------------------------------------------------------------------------|

e|-------------------------------------------------------------------------|
B|-------------------------------------------------------------------------|
G|--------------------------2--2--2----0------------2---2--------0---------|
D|-----2---------------0---------------2--------0-----------3----2----2---0|
A|----------3---3---------------------------3------------------------------|
E|-------------------------------------------------------------------------|

e|------------------------------------------------------------0---0--------|
B|-----------------------------------------------2----3---3----------2-----|
G|-2------0----------------------2-----0----0------------------------------|
D|-------------2---2-----0--0----------------------------------------------|
A|-------------------------------------------------------------------------|
E|-------------------------------------------------------------------------|

e|-------------------------------------------------------------------------|
B|-----3-------------------------------------------------------------------|
G|-------------------------------------------------------------------------|
D|-------------------------------------------------------------------------|
A|-----3-------------------------------------------------------------------|
E|-------------------------------------------------------------------------|


Tap to rate this tab
 
# A B C D E F G H I J K L M N O P Q R S T U V W X Y Z