Song name
# A B C D E F G H I J K L M N O P Q R S T U V W X Y Z

Sherwood - Learn To Sing tab

Learn To Sing - Sherwood "Sing But Keep Going"

(Listen to the song for the rythym)

Intro x2
e|--3-3-3-3--3-3-3-3--2-2-2--3-3-3-3--3~-|
B|--3-3-3-3--3-3-3-3--3-3-3--3-3-3-3--3~-|
G|--0-0-0-0--0-0-0-0--2-2-2--0-0-0-0--0~-|
D|--2-2-2-2--2-2-2-2--0-0-0--0-0-0-0--X~-|
A|--2-2-2-2--2-2-2-2--X-X-X--X-X-X-X--3~-|
E|--X-X-X-X--X-X-X-X--X-X-X--3-3-3-3--X--|

Verse x4
e|--3-3-3-3--3-3-3-3--2-2-2--3-3-3-3--3~-|
B|--3-3-3-3--3-3-3-3--3-3-3--3-3-3-3--3~-|
G|--0-0-0-0--0-0-0-0--2-2-2--0-0-0-0--0~-|
D|--2-2-2-2--2-2-2-2--0-0-0--0-0-0-0--X~-|
A|--2-2-2-2--2-2-2-2--X-X-X--X-X-X-X--3~-|
E|--X-X-X-X--X-X-X-X--X-X-X--3-3-3-3--X--|

Chorus x3
e|--3-3-3-3-3-3-3--3-3-3-3-3-3-3--3-3-3-3-3-3-3--3-3-3-3-3-3-3--|
B|--3-3-3-3-3-3-3--3-3-3-3-3-3-3--3-3-3-3-3-3-3--3-3-3-3-3-3-3--|
G|--0-0-0-0-0-0-0--0-0-0-0-0-0-0--0-0-0-0-0-0-0--2-2-2-2-2-2-2--|
D|--2-2-2-2-2-2-2--X-X-X-X-X-X-X--0-0-0-0-0-0-0--2-2-2-2-2-2-2--|
A|--2-2-2-2-2-2-2--3-3-3-3-3-3-3--X-X-X-X-X-X-X--0-0-0-0-0-0-0--|
E|--X-X-X-X-X-X-X--X-X-X-X-X-X-X--3-3-3-3-3-3-3--X-X-X-X-X-X-X--|

e|--3-3-3-3-3-3-3--3~-|
B|--3-3-3-3-3-3-3--3~-|
G|--0-0-0-0-0-0-0--0~-|
D|--2-2-2-2-2-2-2--X~-|
A|--2-2-2-2-2-2-2--3~-|
E|--X-X-X-X-X-X-X--X--|

Outro
e|---3~---3~---3~---3~--|
B|---3~---3~---3~---3~--|
G|-0----0----0----0-----|
D|----------------------|
A|----------------------|
E|----------------------|


Email: briteguy91@yahoo.com


Tap to rate this tab
# A B C D E F G H I J K L M N O P Q R S T U V W X Y Z