Song name
# A B C D E F G H I J K L M N O P Q R S T U V W X Y Z

Sherwood - Something Worth Knowing tab

Help us improve GuitareTab! Take a short survey!
i only have the intro and verse...i dont have the chorus yet, sorry.

. = palm muted
h = hammer on
/ = slide


e|------------------------------------|
B|------------------------------------|
G|------------------------------------| this part is played at the same time with the
D|--------------------         piano--|
A|---5---3---2---0--------------------|
E|-------------------3----------------|
     .................


e|--------------------------------------------------------|
B|--------------------------------------------------------|
G|--------------------------------------------------------|
D|--------------------------------------------------------|
A|---3h5/7-7--------3h5/7-7-5--------3h5/7-7-5-3-5-3-2-3--|
E|--------------------------------------------------------|


VERSE:

e|-----------------------------------------------------|
B|-----------------------------------------------------|
G|-------5-------7-------5-------7-------5-------------|  1x
D|-----5-------5-------7-------5-------3---------------|
A|---7-------5-------7-------5-------3-----------------|
E|-----------------------------------------------------|

e|-----------------------------------------------------|
A|-----------------------------------------------------|
G|-------5-------7-------5-------7-------5-------------|   3x
B|-----5-------6-------7-------5-------3---------------|
A|---7-------7-------7-------5-------3-----------------|
E|-----------------------------------------------------|

and thats all i got for you, sorry i dont have the chorus, but yeah this is my first 
so please rate it. But overall its a pretty easy, but rather fun song to play.

God bless you guys. DJ.
Related for Something Worth Knowing tab