Song name
# A B C D E F G H I J K L M N O P Q R S T U V W X Y Z

Sherwood - Never Ready To Leave tab

-------------------------------------------------------------------------------
			     Sherwood - Never Ready to Leave
-------------------------------------------------------------------------------
Tabbed by: Sean Hummer
Email: allstar21369@hotmail.com

I love this song and this is a rough tab of it with some of the lead.
It sounds good playing it with the song but there is a lot of backup guitar
that plays a C-octave at a lot of parts.


Throw this in almost everywhere as the lead...
e|-----------------------------------|
B|-----------------------------------|
G|5-5-5-5-5-5-5-5-5-5-5-5-5-5-5-5----|
D|x-x-x-x-x-x-x-x-x-x-x-x-x-x-x-x-x2-|
A|3-3-3-3-3-3-3-3-3-3-3-3-3-3-3-3----|
E|-----------------------------------|


Tuning: Standard

Intro - Piano/Keyboard

Chorus - Strum it clean - (Here in the meantime, I'm a fly...)
e|---------------------------------------------------------------------------|
B|---------------------------------------------------------------------------|
G|5-5-5-5-5-5-5-5-5-5-5-5-5-5-5-5----2-2-2-2-2-2-2-2-2-2-2-2-2-2-2-2---------|
D|5-5-5-5-5-5-5-5-5-5-5-5-5-5-5-5-x2-2-2-2-2-2-2-2-2-2-2-2-2-2-2-2-2-x2------|
A|3-3-3-3-3-3-3-3-3-3-3-3-3-3-3-3----0-0-0-0-0-0-0-0-0-0-0-0-0-0-0-0---------|
E|---------------------------------------------------------------------------|

Chorus Cont. - Distorted - (And I'll tell you the worst part...)
e|---------------------------------------------------------------------------|
B|---------------------------------------------------------------------------|
G|---------------------------------------------------------------------------|
D|3-3-3-3-3-3-3-3-3-3-3-3-3-3-3-3----5-5-5-5-5-5-5-5-5-5-5-5-5-5-5-5---------|
A|3-3-3-3-3-3-3-3-3-3-3-3-3-3-3-3-x2-5-5-5-5-5-5-5-5-5-5-5-5-5-5-5-5---------|
E|1-1-1-1-1-1-1-1-1-1-1-1-1-1-1-1----3-3-3-3-3-3-3-3-3-3-3-3-3-3-3-3---------|

Chorus Cont....        Post-Chorus...
e|---------------------------------------------------------------------------|
B|---------------------------------------------------------------------------|
G|77777777-99999999----5-5-5-5-5-5-5-5-2-2-2-2-2-2-2-2---------5-5-5-5-------|
D|xxxxxxxx-xxxxxxxx----5-5-5-5-5-5-5-5-2-2-2-2-2-2-2-2-3-3-3-3-5-5-5-5-------|
A|55555555-77777777----3-3-3-3-3-3-3-3-0-0-0-0-0-0-0-0-3-3-3-3-3-3-3-3-------|
E|-----------------------------------------------------1-1-1-1---------------|



Verse - Just Downstrokes - (This house is haunted...)
e|---------------------------------------------------------------------------|
B|---------------------------------------------------------------------------|
G|5-5-5-5-5-5-5-5-5-5-5-5-5-5-5-5--------------------------------------------|
D|x-x-x-x-x-x-x-x-x-x-x-x-x-x-x-x-7-7-7-7-7-7-7-7-7-7-7-7-7-7-7-7------------|
A|3-3-3-3-3-3-3-3-3-3-3-3-3-3-3-3-x-x-x-x-x-x-x-x-x-x-x-x-x-x-x-x------------|
E|--------------------------------5-5-5-5-5-5-5-5-5-5-5-5-5-5-5-5------------|

Verse Cont...
e|---------------------------------------------------------------------------|
B|---------------------------------------------------------------------------|
G|---------------------------------5-5-5-5-5-5-5--7--------------------------|
D|3-3-3-3-3-3-3-3-3-3-3-3-3-3-3-3--x-x-x-x-x-x-x--x--------------------------|
A|x-x-x-x-x-x-x-x-x-x-x-x-x-x-x-x--3-3-3-3-3-3-3--5--------------------------|
E|1-1-1-1-1-1-1-1-1-1-1-1-1-1-1-1--------------------------------------------|



Chorus - Distorted Fast Strum - (Here in the meantime, I'm a fly...)
e|---------------------------------------------------------------------------|
B|---------------------------------------------------------------------------|
G|11-11-11-11-11-11-11-11-11-11-11-11-11-11-11-11----9-9-9-9-9-9-9-9-9-9-9-9-|
D|x--x--x--x--x--x--x--x--x--x--x--x--x--x--x--x--x2-x-x-x-x-x-x-x-x-x-x-x-x-|
A|8--8--8--8--8--8--8--8--8--8--8--8--8--8--8--8-----7-7-7-7-7-7-7-7-7-7-7-7-|
E|---------------------------------------------------------------------------|

Chorus Cont...  (And I'll tell you the worst part...)
e|---------------------------------------------------------------------------|
B|---------------------------------------------------------------------------|
G|9-9-9-9--------------------------------------------------------------------|
D|x-x-x-x-x2----3-3-3-3-3-3-3-3-3-3-3-3-3-3-3-3----5-5-5-5-5-5-5-5-5-5-5-5-5-|
A|7-7-7-7-------3-3-3-3-3-3-3-3-3-3-3-3-3-3-3-3-x2-5-5-5-5-5-5-5-5-5-5-5-5-5-|
E|--------------1-1-1-1-1-1-1-1-1-1-1-1-1-1-1-1----3-3-3-3-3-3-3-3-3-3-3-3-3-|

Chorus Cont...      Post-Chorus Lead...             Then this right after...
e|---------------------------------------------------------------------------|
B|---------------------------------------------------------------------------|
G|------------------12-12-10\9---------------x3------------------------------|
D|5-5-5------------------------12-10-9/10-5---------5-7-9-10-12-14-15\14-10--|
A|5-5-5-x2-------------------------------------------------------------------|
E|3-3-3----------------------------------------------------------------------|

Breakdown... It's on piano but I believe these are the notes...
e|---------------------------------------------------------------------------|
B|------5--------------------------------------------------------------------|
G|5---7--7-5-7---------------------------------------------------------------|
D|--5-----------x4-----------------------------------------------------------|
A|---------------------------------------------------------------------------|
E|---------------------------------------------------------------------------|

That's all for now but I will update when I have time. Enjoy and please rate.


| /  slide up
| \  slide down
| h  hammer-on
| p  pull-off
| ~  vibrato
| +  harmonic
| x  Mute note
===============================================================================
Tap to rate this tab
 
# A B C D E F G H I J K L M N O P Q R S T U V W X Y Z