Song name
# A B C D E F G H I J K L M N O P Q R S T U V W X Y Z

Sherwood - Ill Wait For You tab

this song is pretty easy
its in standard tuning
so here it is...


this is the piano intro.
e|-------------------------------------------------------------|
b|-------------------------------------------------------------|
g|-7-just keep hitting till it stars---------------------------|
d|-------------------------------------------------------------|
a|-------------------------------------------------------------|
E|-------------------------------------------------------------|


verse
e|-------------------------------------------------------------|
b|-------------------------------------------------------------|
g|-7--7-7------------------------------------------------------|
d|-7--7-7--5-5-5-5--2-2-2-2-2-7-7-7-7-7------------------------|
a|-5--5-5--5-5-5-5--2-2-2-2-2-7-7-7-7-7-(4x)-------------------|
E|---------3-3-2-2--0-0-0-0-0-5-5-5-5-5------------------------|
Tap to rate this tab
# A B C D E F G H I J K L M N O P Q R S T U V W X Y Z