Song name
# A B C D E F G H I J K L M N O P Q R S T U V W X Y Z

Sheryl Crow - Am I Getting Through Part I Ii tab

Am I Getting Through (Part I & II)
Tabbed by: David Ribeiro


Notes: Part I's Verse pick chords, chorus strum.
       Part II's strum as hard as you can :-)   (use distortion pedal if possible)


Chords for Part I:  (unless you use the Riff instead)
   E7sus2    A         A5        Asus4     Am        G         C
 E-2---------0-----------------------------0---------3---------0-|
 B-3---------2---------5---------3---------1---------3---------1-|
 G-4---------2---------2---------2---------2---------0---------0-|
 D-2---------2---------2---------2---------2---------0---------2-|
 A-2---------0---------0---------0---------0---------2---------3-|
 E-0---------0---------0-------------------0---------3---------3-|

   D         F         F#m11
 E-2---------1---------2-|
 B-3---------1---------5-|
 G-2---------2---------2-|
 D-0---------3---------2-|
 A-0---------3---------2-|
 E-0---------1---------0-|


Riff:
   E7sus2  A E7sus2
 E-----------------------|
 B-------3-2---------3-5-|
 G-----4-4-2-2-----4-4-2-|
 D---2-----------2-------|
 A-----------------------|
 E-0-----------0---------|


(Use Riff throughout verse)

I am strong
I am able
I spill milk on your table
Then I crawl like a baby
Just to see if you save me

I am sweet
I am ugly
I am mean if you love me
I try hard just to please you
When I say I don't need you

I dress up with a conscience
When I think you'll be watching
I say all the right things
I don't know what I mean


G  A
Am I
C  D
Am I
A
Getting Through
G  A
Am I
C  D
Am I
A
Getting Through
C  D
Am I
F  G
Am I
D
Getting Through


(Back to Riff)

I am ignorant and rude
I am fashionably crude
And sometimes when it's quiet
I'm an angel in white

When I pose in the mirror
I want everyone near me
I am scared that I'm weird
I'm afraid I am queer

I am lovely and weak
I am foul when I speak
I am strange when I'm kind
I am frying my mind

G  A
Am I
C  D
Am I
A
Getting Through
G  A
Am I
C  D
Am I
A
Getting Through
C  D
Am I
F  G
Am I
D
Getting Through
(I don't care, I don't care)


(Back to Riff)

Jesus loves me I know
For my mom told me so
I'm a loser at love
I'm a flower in the mud


G  A
Am I
C  D
Am I
A
Getting Through
G  A
Am I
C  D
Am I
A
Getting Through
C  D
Am I
F  G
Am I
D
Getting Through

Chords for Part II:
   C6        Asus4     Gsus4     Dsus2
 E-5---------5---------3---------0----|
 B-5---------5---------3---------3----|
 G-5---------7---------5---------2----|
 D-7---------7---------5---------0----|
 A-7---------5---------3---------0----|
 E-5---------5---------3---------0----|


Part II


C6        Asus4
Don't you hate it
         Gsus4            Dsus2  C6   Asus4  Gsus4  Dsus2    C6
When the money starts to running out
(C6)    Asus4  Gsus4
Your esoteric rants
            Dsus2     C6
Were made to twist and shout
I heard you moved
Now you're hangin on the Moulin Rouge
G
Don't you know no matter where you go
            Dsus2
Somebody's always watching you
                  C6        Dsus2     Gsus4
That's what they saaaaaay--aayyyyyyy-ayyyyy
                  C6        Dsus2     Gsus4
That's what they saaaaaay--aayyyyyyy-ayyyyy
When the pages fade the love you made
Will seem one hundred light years away
Tap to rate this tab
# A B C D E F G H I J K L M N O P Q R S T U V W X Y Z