Song name
# A B C D E F G H I J K L M N O P Q R S T U V W X Y Z

Sheryl Crow - First Cut Is The Deepest tab

First Cut is the deepest by Sheryl Crow (Solo)
Tabbed by Prads

Tuning - Standard Tuning (EADGBE)

u = bend up
h = hammer on

E--------------------------------------------------------------------------------------|
B------------------------------------------------10-10---8-7-7-7-----------------------|
G-------------------7--7-7-7-7-7-7-7-9u-7h9--9-7-9--9----7-7-9-7-7-7-------------------|
D------------7--7-9-----9---9---9---9----------------------------7-7-9-5-7--7-5-7h9-7--|
A------5--7-9--------------------------------------------------------------------------|
E---5-7--------------------------------------------------------------------------------|

E---------------------------------------------------------5-------------------------------|
B------------------------------------------------8-10-8-7-5-5-5h7-5h7-5--5-5--------------|
G------------------7--7-9u--9-7-6----------------7-7--7-7---6-6---6---5--5-7u-7-5-5-7-5-3-|
D------------7--7-9--9-----------7--------------------------------------------------------|
A------5--7-9---------------------7--7-5-7-9-7--------------------------------------------|
E-5-5-7-----------------------------------------------------------------------------------|

Have fun!!!
Any comments and questions email me to: pra2nepal@yahoo.co.uk
Tap to rate this tab
# A B C D E F G H I J K L M N O P Q R S T U V W X Y Z