Song name
# A B C D E F G H I J K L M N O P Q R S T U V W X Y Z

Sheryl Crow - Now That Youre Gone tab

Highlighted       Show chord diagrams
Em             Bm
Well I can see heaven
Em             Bm
See it over the plain
G            F#m
If I start running now
Em
I think I can make it
                      Em7
And never look back again


Em                   Bm
Your face is all around me
Em                  Bm
Your keys are in my hand
G                F#m
And everywhere I go
Em
I’ll try to remember
              Em7
Exactly who I am


D                      C
‘Cause now that you’re gone
        Em
I can breathe
D                 C
Now that you’re gone
E
I am free
F#m                         Bm
Free to make a mess of everything
Em          step up       G
‘Cause nothing belongs to me
D
‘Cause now that you’re gone
Em
I can breathe


We made a bed of roses
But I got pricked by the thorns
And on a long cold night
I still think I’m bleeding
But I wake up untorn

Well I am a missing person
I’ve lost it all but my name
And, I’m afraid some long lonely road
Will lead me back to you again

Cause now that you’re gone
I can breathe
Now that you’re gone
I am free
Free to make a mess of everything
‘Cause nothing belongs to me
Now that you’re gone
Now that you’re gone
Now that you’re gone

‘Cause now that you’re gone
I can breathe
Now that you’re gone
I am free
Free to make a mess of everything
‘Cause nobody’s watching me

Now that you’re gone
I am free
Now that you’re gone
I can breathe
Now that you’re gone
I am free
Now that you’re gone
I can breathe

Play the Em and Bm on the verses as a variation at the 7th fret.

Em(Variation)
--7-----------------|
-----8--------------|
--------9-----------|
--------9-----------|
--7-----------------|
X-------------------|
Bm(Variation)
--7-----------------|
--7-----------------|
--7-----------------|
-----8--------------|
-----8--------------|
--7-----------------|
G
----3---------------|
--------------------|
--------------------|
--------------------|
--2-----------------|
-----3--------------|

Em
-------------------|
-------------------|
-------------------|
----2--------------|
----2--------------|
-------------------|

Em7
--------------------|
------3-------------|
--------------------|
---2----------------|
---2----------------|
--------------------|

D
---2----------------|
-------3------------|
---2----------------|
--------------------|
x-------------------|
x-------------------|

C
--------------------|
--1-----------------|
--------------------|
-----2--------------|
--------3-----------|
x-------------------|

F#m
--2-----------------|
--2-----------------|
--2-----------------|
-------4------------|
-------4------------|
--2-----------------|
Tap to rate this tab
# A B C D E F G H I J K L M N O P Q R S T U V W X Y Z