Sheryl Crow - Cmon Cmon tab

SONG: C'MON C'MON
ARTIST: SHERYL CROW
ALBUM: C'MON C'MON
TAB BY: Christin Cunfer   cunfsstang@aol.com


INTRO:

     D                           A

E ---2-----------------------------------------------|
B ---3-----------------------------------------------|
G -- 2------------------------------------2----------|
D ---2---------0--2--4-4\2--0-------2/4------4/2-----|
A ---0---0-2---------------------0-------------------|
E ---0-----------------------------------------------|


    D                                  A

E -------------------------------------0----|
B ------------------------------------------|
G ---------2h4---2---2h4--2-----------------|
D --0---------------------------------------|
A ------------------------------------------|
E ------------------------------------------|



                             D    A   D   A

E ----0--2--3--2--0--2-----------------------|
B ---------------------------3---------------|
G -------------------------------------------|
D -------------------------------------------|
A -------------------------------------------|
E -------------------------------------------|

VERSE:

        D     G  A
C'mon,  c'mon
              D  G  A
C'mon, c'mon c'mon
     G
You lay down with angels
     A             D
To feel yourself again
   G
You've got everything you need
  A
Under your thick skin
G                     A
I know where you're going
G                    A
I know where you've been
 G
When it comes to playin' games
 A
You will always win



[CHORUS:]
  D
C'mon, c'mon c'mon
  G        A
Break my heart again
     G         D   A
For old times sake
   D
C'mon, c'mon c'mon
  G        A
Break my heart again
     G         D   A
For old times sake

VERSE:

 G
You can't see your shadow
A                 D
Reaching for the sky
 G
Lay your head down on my bed
 A
Please don't ask me why
G           A
Why am I leaving
 G            A
Why don't I know
 G               A
Something deep inside me
 G               A
Is forcing me to go
 G           A
You say you need me
     G                A
But you can't tell me no
G                  D
When I ask you to stop me baby
 A
You just let me go

[CHORUS]
  D
C'mon, c'mon c'mon
  G        A
Break my heart again
     G         D   A
For old times sake
  D
C'mon, c'mon c'mon
  G        A
Break my heart again
  G           D          A
Before  day breaks  hey baby

BREAK:
 F
You took the best of me
      D
And threw it away
 F
Too bad the rest of me
        A
Still wants you to stay
      A
Want you to stay

INSTRUMENTAL:

D  A Ė 4Xís over the following

Oh baby I want you to stay
Címon címon

VERSE:

 G              A
You say you need me
 G                    A
But you can't tell me no
 G                 D
When I ask you to stop me baby
 A
You just let me go
 A
You just let me go

[CHORUS]

  D
C'mon, c'mon c'mon
  G        A
Break my heart again
     G         D   A
For old times sake
   D
C'mon, c'mon c'mon
  G        A
Break my heart again
        G          D
Itís all that it takes
  A
Címon now
  D
Címon  címon


  D
C'mon, c'mon c'mon
  G        A
Break my heart again
     G         D
For old times sake
  A
Ohhh Címon baby

  D
C'mon, c'mon c'mon
  G        A
Break my heart again
  D
Break my heart

 D (fade out)
Oh I know I know I know you know how
Tap to rate this tab
 
# A B C D E F G H I J K L M N O P Q R S T U V W X Y Z