Song name
# A B C D E F G H I J K L M N O P Q R S T U V W X Y Z

Sheryl Crow - Run Baby Run tab

Chords used:

 G#m   F#m7    E/G#     A7    E/B
e-4-----2-------4-------5------0-|
B-4-----2-------5-------5------0-|
G-4-----2-------4-------6------1-|
D-6-----2-------6-------5------2-|
A-6-----4-------7-------7------2-|
E-4-----2-------4-------5------x-|

        E                                           G#m
She was born in November 1963 - the day that Aldous Huxley died
F#m7
  And her mama believed that every man could be free
E/G#             A7
So her mama got high, high, high
E/B      C7
And her daddy marched on Birmingham singing mighty protest songs
Am7                                                         /G
  And he pictured all the places where he knew that she'd belong
       F                               Bb                             B
But he failed and taught her young the only thing she'd need to carry on
   NC
He taught her how to



E                 C#m7              G#m7    B
Run baby run baby run baby run baby run
E                 C#m7              G#m7    B
Run baby run baby run baby run baby run
         A7                             C7
Past the arms of the familiar and their talk of better days
       A7                                 C7                      D     B
To the comfort of the strangers, slipping out before they say "so long"
              E
Baby loves to run



She counts out all her money in the taxi on the way to meet her plane
And stares hopeful out the window
at the workers fighting through the pouring rain
She's searching through the stations for an unfamiliar song
And she's thinking 'bout all the places where she knows she still belongs
And she smiles the secret smile because she knows exactly how to carry on



So run baby run baby run baby run baby run
Run baby run baby run baby run baby run
From the old familiar faces and their old familiar ways
To the comfort of the strangers, slipping out before they say "so long"
Baby loves to run


 (Same chords as first half of verse)


She's searching through the stations for an unfamiliar song
And she pictures all the places where she knows she still belongs
And she smiles the secret smile that shows she knows exactly how to carry on



So run baby run baby run baby run baby run  (repeat to fade)

...........



I think there's actually two electric guitars on the recording, but they're
doing much the same thing as each other. During the verse, they're playing
something along these lines



  + . . + . .   + . . + . .   + . . + . .   + . . + . .

      (Stab)        (Stab)        (Stab)        (Stab)

|-------0-----|-------0-----|-------4-----|-------4-----|
|-------0-----|-------0-----|-------4-----|-------4-----|
|-------1-----|-------1-----|-------4-----|-------4-----|
|-2-----------|-2-----------|-6-----------|-6-----------|
|-2-----------|-2-----------|-6-----------|-6-----------|
|-0-----------|-0-----------|-4-----------|-4-----------|



  + . . + . .   + . . + . .   + . . + . .   + . . + . .

      (Stab)        (Stab)

|-------2-----|-------2-----|-------------|-------------|
|-------2-----|-------2-----|-------2-----|-------2-----|
|-------2-----|-------2-----|-----0---0---|-----0---0---|
|-4-----------|-4-----------|---2-------2-|---2-------2-|
|-4-----------|-4-----------|-0-----------|-0-----------|
|-2-----------|-2-----------|-------------|-------------|



Arpeggiate the rest of the verse chords in this way as well.


The following is played over "Run baby run ..."


    +  . . +  .  .      +  . .  +  .  .      +  .  .  + . .   + . . + . .

|---------------------|--------------------|----------------|-------------|
|---------------------|--------------------|----------------|-------------|
|---9--9---9---------9|-9--9----9---------9|----------------|-------------|
|-9h11-9---9---------9|-11-9----9---------9|-9--9-----9-----|-------------|
|----------------9h11-|-------11------9h11-|-11-9-----9---11|-9-----------|
|---------------------|--------------------|--------11------|-7-----------|



The following is the pick-up into the last chorus


 +    .    .

---------------|
---------------|
-9-------------|
-9h11p9----9---|
--------11-9---|
---------------|
Tap to rate this tab
 
# A B C D E F G H I J K L M N O P Q R S T U V W X Y Z