Guitaretab - guitar tabs
Song name
# A B C D E F G H I J K L M N O P Q R S T U V W X Y Z

Sheryl Crow - Tomorrow Never Dies tab

The song was used as the theme for an James Bond film with
the very same title. It's a great song and I was in a
band performing it in Tivoli in Copenhagen last year...
I screw it up, but whatever!

It might seem long but it's mostly the same stuff.
I've just wrote it every time it's suppose to be played.

Enjoy
TheKermal

[0.00 - 0.14: Pre-intro]

E|-----------------------------|---------------------------------|
H|-----------------------------|---------------------------------|
G|---------------------3-------|-------------------5---3---------|
D|----------------5---------6--|---------------5-----------------|
A|---6---5---3-----------------|---6---5---3---------------------|
E|-----------------------------|---------------------------------|

E|-----------------------------|---------------------------------|
H|-----------------------------|---------------------------------|
G|---------------------3-------|---------------------------------|
D|----------------5---------6--|---------------5---3---5---------|
A|---6---5---3-----------------|---6---5---3---------------6---5-|
E|-----------------------------|---------------------------------|

[0.14 - 0.19: Guitar intro]
You can just use your 1st finger as barre

E|-----------------------------|-----------------------------|
H|-------------3---------------|-----------3-----------------|
G|----------3------3-----------|------3--------3-------------|
D|-------5-------------5-------|--5---------------5----------|
A|----5--------------------5---|---------------------5-------|
E|-----------------------------|-----------------------------|

E|-----------------------------|-----------------------------|
H|-----------3-----------------|-----------3-----------------|
G|-------3-------3-------------|------3---------3------------|
D|---5---------------5---------|--5-----------------5--------|
A|-----------------------5-----|-----------------------------|
E|-----------------------------|-----------------------------|

[0.20 - 0.33: 1st part of verse]
This might seem difficult, but you'll soon see the big paint, and after some practice... 
roll!

E|--------------3----------|------------3-----------|
H|----------3-------3------|---------3------3-------|
G|------3--------------3---|------3------------3----|
D|--5----------------------|--4---------------------|
A|-------------------------|------------------------|
E|-------------------------|------------------------|

E|--------------3----------|------------3-----------|
H|----------3-------3------|---------3------3-------|
G|------3--------------3---|------3------------3----|
D|--3----------------------|--2---------------------|
A|-------------------------|------------------------|
E|-------------------------|------------------------|

E|--------------3----------|------------3-----------|
H|----------1-------1------|---------1------1-------|
G|------0---------------0--|------0------------0----|
D|--1----------------------|--1---------------------|
A|-------------------------|------------------------|
E|-------------------------|------------------------|

E|--------------3----------|---2-----------2--------|
H|----------3-------2------|-------3-----------3----| (Like a Dsus chord)
G|------2---------------2--|-----------2----------4-|
D|--0----------------------|------------------------|
A|-------------------------|------------------------| x 2
E|-------------------------|------------------------|

[It's so deadly my dear... 0.48]
E|--------------1----------|------------1-----------|
H|----------1-------1------|---------1------1-------|
G|------1---------------1--|------1------------1----|
D|--3----------------------|--3---------------------|
A|-------------------------|------------------------|
E|-------------------------|------------------------|

E|--------------1----------|------------1-----------|
H|----------1-------1------|---------1------1-------|
G|------1---------------1--|------1------------1----|
D|--1----------------------|--1---------------------|
A|-------------------------|------------------------|
E|-------------------------|------------------------|

E|--------------1----------|------------1-----------|
H|----------1-------1------|---------1------1-------|
G|------1---------------1--|------1-----------------|
D|--0----------------------|--0---------------------|
A|-------------------------|------------------------|
E|-------------------------|------------------------|

E|--------------3----------|-------------------------|
H|----------3-------3------|-------------------------|
G|------0--------------0---|-------------------------|
D|-------------------------|-------------------------|
A|-1-2---------------------|-------------------------|
E|-------------------------|---3---------------------|

Yaw homie! While writing this i'm gettin' a cold so you better
be thankfull! ;) Right, time for the big chorous.

IMPORTANT NOTE: Listen to the song to find out when to start playing.

[1.00: Chorous]
... Untill the daaaaaaaaaaaaaaaaaaaaaaaaaaa-iih-aay!
E|---------------------------------------|
H|---------------------------------------|
G|---------------------------------------|
D|---------------------------------------|
A|---3--3--3----5---6---5----------------|
E|--------------------------------3------|

E|---------------------------------------|
H|---------------------------------------|
G|---------------------------------------|
D|---------------------------------------|
A|---3--3--3----5---6---11--------2------| x 2
E|---------------------------------------|

[1.14: Untill you say there'll be no more good-bye's ]

E|-------------------|-------------------|
H|-------------------|-------------------|
G|-------------------|-------------------|
D|-------------------|-------------------|
A|--3--------4-------|--5--------5-------| Play this like
E|------4--------4---|------3---------3--| 1/4 notes

E|-------------------|-------------------|
H|-------------------|-------------------|
G|-------------------|-------------------|
D|-------------------|-------------------|
A|--3-------4--------|---5---------------|
E|------1--------1---|----------3--------|

[1.28: Pre intro]

This is exactly like in the beginning of the song EXCEPT for the fact
that the guitar intro is shorted. You only play it 2 times before the
song comes on.

E|-----------------------------|---------------------------------|
H|-----------------------------|---------------------------------|
G|---------------------3-------|-------------------5---3---------|
D|----------------5---------6--|---------------5-----------------|
A|---6---5---3-----------------|---6---5---3---------------------|
E|-----------------------------|---------------------------------|

E|-----------------------------|---------------------------------|
H|-----------------------------|---------------------------------|
G|---------------------3-------|---------------------------------|
D|----------------5---------6--|---------------5---3---5---------|
A|---6---5---3-----------------|---6---5---3---------------6---5-|
E|-----------------------------|---------------------------------|

[1.40: Guitar intro]

E|-----------------------------|-----------------------------|
H|-------------3---------------|-----------3-----------------|
G|----------3------3-----------|------3--------3-------------|
D|-------5-------------5-------|--5---------------5----------|
A|----5--------------------5---|---------------------5-------|
E|-----------------------------|-----------------------------|

[1.44: 1st part of verse]
...Darling you've won...
[ Tab from: http://www.guitaretab.com/s/sheryl-crow/37573.html ]
E|--------------3----------|------------3-----------|
H|----------3-------3------|---------3------3-------|
G|------3--------------3---|------3------------3----|
D|--5----------------------|--4---------------------|
A|-------------------------|------------------------|
E|-------------------------|------------------------|

E|--------------3----------|------------3-----------|
H|----------3-------3------|---------3------3-------|
G|------3--------------3---|------3------------3----|
D|--3----------------------|--2---------------------|
A|-------------------------|------------------------|
E|-------------------------|------------------------|

E|--------------3----------|------------3-----------|
H|----------1-------1------|---------1------1-------|
G|------0---------------0--|------0------------0----|
D|--1----------------------|--1---------------------|
A|-------------------------|------------------------|
E|-------------------------|------------------------|

E|--------------3----------|---2-----------2--------|
H|----------3-------2------|-------3-----------3----| (Like a Dsus chord)
G|------2---------------2--|-----------2----------4-|
D|--0----------------------|------------------------|
A|-------------------------|------------------------| x 2
E|-------------------------|------------------------|

[It's so deadly my dear... 2.10]

E|--------------1----------|------------1-----------|
H|----------1-------1------|---------1------1-------|
G|------1---------------1--|------1------------1----|
D|--3----------------------|--3---------------------|
A|-------------------------|------------------------|
E|-------------------------|------------------------|

E|--------------1----------|------------1-----------|
H|----------1-------1------|---------1------1-------|
G|------1---------------1--|------1------------1----|
D|--1----------------------|--1---------------------|
A|-------------------------|------------------------|
E|-------------------------|------------------------|

E|--------------1----------|------------1-----------|
H|----------1-------1------|---------1------1-------|
G|------1---------------1--|------1-----------------|
D|--0----------------------|--0---------------------|
A|-------------------------|------------------------|
E|-------------------------|------------------------|

E|--------------3----------|-------------------------|
H|----------3-------3------|-------------------------|
G|------0--------------0---|-------------------------|
D|-------------------------|-------------------------|
A|-1-2---------------------|-------------------------|
E|-------------------------|---3---------------------|

[2.23: Untill the daaaaaay]

E|---------------------------------------|
H|---------------------------------------|
G|---------------------------------------|
D|---------------------------------------|
A|---3--3--3----5---6---5----------------|
E|--------------------------------3------|

E|---------------------------------------|
H|---------------------------------------|
G|---------------------------------------|
D|---------------------------------------|
A|---3--3--3----5---6---11--------2------| x 2
E|---------------------------------------|

...Untill you say there'll be no more good-bye's...
E|-------------------|-------------------|
H|-------------------|-------------------|
G|-------------------|-------------------|
D|-------------------|-------------------|
A|--3--------4-------|--5--------5-------| Play this like
E|------4--------4---|------3---------3--| 1/4 notes

E|-------------------|-------------------|
H|-------------------|-------------------|
G|-------------------|-------------------|
D|-------------------|-------------------|
A|--3-------4--------|---5---------------|
E|------1--------1---|----------3--------|

[2.52 - 3.10: C-part that the guitar almost doesn't take part in]

[3.11: Diffrent Pre intro]

E|-----------------------------|---------------------------------|
H|-----------------------------|---------------------------------|
G|---------------------3-------|-------------------5---3---------|
D|----------------5---------6--|---------------5-----------------|
A|---6---5---3-----------------|---6---5---3---------------------|
E|-----------------------------|---------------------------------|

E|-----------------------------|---------------------------------|
H|-----------------------------|---------------------------------|
G|---------------------3-------|---------------3---5-------------|
D|----------------5---------6--|-----------------------6---------|
A|---6---5---3-----------------|---6---5---3---------------------|
E|-----------------------------|---------------------------------|

E|-----------------------------|---------------------------------|
H|-----------------------------|---------------------------------|
G|-----------------------------|---------------------------------|
D|-5-5-5-5-5-5-5-5-5-5-5-5-5-5-|-5-5-5-5-5-5-5-5-5-5-5-5-5-5-5-5-|
A|-----------------------------|---------------------------------|
E|-----------------------------|---------------------------------|

[3.30: Chorous with a bit changed]

...Untill the daaaaaaay...

E|---------------------------------------|
H|---------------------------------------|
G|---------------------------------------|
D|---------------------------------------|
A|---3--3--3----5---6---5----------------|
E|--------------------------------3------|

E|---------------------------------------|
H|---------------------------------------|
G|---------------------------------------|
D|---------------------------------------|
A|---3--3--3----5---6---11--------2------|
E|---------------------------------------|

[3.43]

E|-------------------|-------------------|
H|-------------------|-------------------|
G|-------------------|-------------------|
D|-------------------|-------------------|
A|--3--------4-------|--5--------5-------| Play this like
E|------4--------4---|------3---------3--| 1/4 notes

E|-------------------|-------------------|
H|-------------------|-------------------|
G|-------------------|-----------3-------|
D|-------------------|---5---3-----------|
A|--3-------4--------|--------------6--5-|
E|------1--------1---|-------------------|

[3.57: No singing]
Use your fantasy here. use some scales. Jump a little around.

E|---------------------------------------|
H|---------------------------------------|
G|---------------------------------------|
D|---------------------------------------|
A|---3--3--3----5---6---5----------------|
E|--------------------------------3------|

E|---------------------------------------|
H|---------------------------------------|
G|---------------------------------------|
D|---------------------------------------|
A|---3--3--3----5---6---11--------2------| x 4
E|---------------------------------------|

[4.23: With song again]

E|---------------------------------------|
H|---------------------------------------|
G|---------------------------------------|
D|---------------------------------------|
A|---3--3--3----5---6---5----------------|
E|--------------------------------3------|

E|---------------------------------------|
H|---------------------------------------|
G|---------------------------------------|
D|---------------------------------------|
A|---3--3--3----5---6---11--------2------| x 2
E|---------------------------------------|

[THE ENDING OF THE SONG]

E|---------------------------------------|
H|----------------------------------4----|
G|---------------------3---1--------4----|
D|------------3---1-----------------3----|
A|---5---3-------------------------------|
E|---------------------------------------|

/TheKermal
Related for Tomorrow Never Dies tab
×
Tomorrow Never Dies