Song name
# A B C D E F G H I J K L M N O P Q R S T U V W X Y Z

Sheryl Crow - Steve Mcqueen tab

                    Steve Mcqueen – Sheryl Crow 
                       Album C’mon C’mon
-----------------------------------------------------------------------
Tabbed by: Boumar55 The song’s major chords are GFC. Due to harmonization, the scale is: 

C major 5th degree (Mixolydian)

Tuning: normal

Intro


e|-------------------------------------------|
B|-------------------------------------------|
G|----------------3--2--0--------------------|
D|----0-----0----------------0----------0----|
A|----2—3h---2—3h------------2-3h-—-----3----| 
E|--3------3---------------3-----1-2h-3h---3-|

e|-------------------------------------------|
B|-------------------------------------------|
G|----------------3--2--0--------------------|
D|----0-----0----------------0----------0----|
A|----2—3h---2—3h------------2-3h-—-----3----| 
E|--3------3---------------3-----1-2h-3h---3-|

    
(verse)
e|----------------------------------------------------------|
B|----------------------------------------------------------|
G|-----------------------3--2--0----------------------------|
D|------0---------0------------------0--------------0-------|
A|------2—3h------2—3h---------------2-3h-—---------3-------| 
E|--3----------3------------------3--------1-2h-3h-------3--|
  Well I went to bed in Memphis And I woke up in Hollywood

e|--------------------------------------------------------------|
B|--------------------------------------------------------------|
G|----------------------3--2--0---------------------------------|
D|-------0--------0-------------------0----------------0--------|
A|-------2—-3h----2—3h----------------2-3h-—-----------3--------| 
E|--3-----------3----------------3-----------1-2h-3h---------3--|
  I got a quarter in my pocket And  Id  call  you  if  I  could 


e|---------------0--------------1-------|
B|---------------1--------------1-------|
G|---------------0--------------2-------|
D|---------------2--------------3-------|      (short pause)
A|---------------3--------------3-------|
E|---------------0--------------0-------|
  But I dont know why   I gotta fly 
 





e|--------------------------------------------------------|
B|--------------------------------------------------------|
G|--------------------3--2--0-----------------------------|
D|-----0--------0------------------0-------------0--------|
A|-----2—3h-----2—3h---------------2-3h-—--------3--------| 
E|--3--------3-----------------3-----1--2h---3h-------3---|
  I wanna rock and roll this party I still wanna have some fun


e|-------------------------------------------------------------------|
B|-------------------------------------------------------------------|
G|-----------------------3--2--0-------------------------------------|
D|-------0----------0-------------------0-------------------0--------|
A|-------2—3h-------2—3h----------------2--3h-—-------------3--------| 
E|--3----------3------------------3-------------1-2h-3h------------3-|
  I wanna leave you feeling breathless Show you how the west was won 
 

e|--------------0---------------1-------|
B|--------------1---------------1-------|
G|--------------0---------------2-------|
D|--------------2---------------3-------|      (short pause)
A|--------------3---------------3-------|
E|--------------0---------------0-------|
   But I gotta fly      I gotta fly 


(chorus)
 
e|--3------------0---------1-----------------------|
B|--0------------1---------1-----------------------|
G|--0------------0---------2-----------------------|
D|--0------------2---------3-----------------------|
A|--2------------3---------3-----------------------|
E|--3------------0---------0-----------------------|
   Like Steve Mcqueen   All I needs a fast machine 



e|---0---------------------3----|
B|---1---------------------0----|
G|---0---------------------0----|
D|---2---------------------0----|
A|---3---------------------2----|
E|---0---------------------3----|
    Im gonna make it all right 

e|--------------0---------1-------------------------|
B|--------------1---------1-------------------------|
G|--------------0---------2-------------------------|
D|--------------2---------3-------------------------|
A|--------------3---------3-------------------------|
E|--------------0---------0-------------------------|
   Like Steve Mcqueen   Underneath your radar screen  


e|---0---------------------3----|
B|---1---------------------0----|
G|---0---------------------0----|
D|---2---------------------0----|
A|---3---------------------2----|
E|---0---------------------3----|
   You’ll never catch me tonite 


G
I aint takin shit off no one
G
Baby that was yesterday
G
Im an all american rebel
G
Making my big getaway
                   C
Yeah you know its time
         F
I gotta fly

[chorus]

G               C
Like steve mcqueen
   F
All I needs a fast machine
  C                    G
Im gonna make it all right
             C
Like steve mcqueen
  F
Underneath your radar screen
  C                     G
You’ll never catch me tonite

G
Like steve mcqueen
G
Like steve mcqueen




G
We got rockstars in the whitehouse
G
All our popstars look like porn
G
All my heroes hit the highway
G
They dont hang out here no more

G
You can call me on my cell phone (you can call me anytime)
G
You can page me all night long
G
But you wont catch this freebird
G
Ill already be long gone
G                   C
Like steve mcqueen
   F
All we needs a fast machine
  C                         G
And were gonna make it all right

               C
Like steve mcqueen
   F 
Underneath your radar screen
  C                     G
You’ll never catch me tonite     


e|-------------------------------------------|
B|-------------------------------------------|
G|----------------3--2--0--------------------|
D|----0-----0----------------0----------0----|
A|----2—3h---2—3h------------2-3h-—-----3----| 
E|--3------3---------------3-----1-2h-3h---3-|

e|-------------------------------------------|
B|-------------------------------------------|
G|----------------3--2--0--------------------|
D|----0-----0----------------0----------0----|
A|----2—3h---2—3h------------2-3h-—-----3----| 
E|--3------3---------------3-----1-2h-3h---3-|     

| /  slide up
| \  slide down
| h  hammer-on
| p  pull-off
| ~  vibrato
| +  harmonic
| x  Mute note


Have fun folks
===============================================================================


Tap to rate this tab
# A B C D E F G H I J K L M N O P Q R S T U V W X Y Z