Song name
# A B C D E F G H I J K L M N O P Q R S T U V W X Y Z

Sheryl Crow - The Fisrt Cut Is The Deepest tab

OK guys this is my first post and Im still learning, but this version is the more 
than any Ive seen so far.  Rate it and let me know what you think....   Fonda and James

Intro

----0---2h3--23--0---------|
--3---------------3--------|
2--------------------------|
---------------------------|
---------------------------|
---------------------------|
I would have given you all of my heart......


-2--5--7--5-5--3-3-2-3-0--|
--------------------------|
--------------------------|
--------------------------|
--------------------------|
--------------------------|
but theres someone whose torn it apart...


do Inrtro again for...

And he's taken just all that I have.......


--2--0---------2-0----0---|
-------3-5----------3---3-|
--------------------------|
--------------------------|
--------------------------|
If  you wannn try to love again....

Chords are.......

  D              A          G             A

--2-2-2-------------------3-3-3----------------------|
--3-3-3--------3-3-3--------------------3-3-3--------|
--2-2-2--------3-3-3--------------------3-3-3--------|
---------------3-3-3--------------------3-3-3--------|       Repeated over and over
--------------------------2-2-2----------------------|
--------------------------3-3-3----------------------|
Tap to rate this tab
# A B C D E F G H I J K L M N O P Q R S T U V W X Y Z