Song name
# A B C D E F G H I J K L M N O P Q R S T U V W X Y Z

Sheryl Crow - The Fist Cut Is The Deepest tab

Sheryl Crow..The First cut is the deepest

This is the first tab I have posted...I think it is more
accurate than any I have seen so far....Let us know what you think...fonda and jimmy


----0---2---3---2---0---2---0-|
---3----------------------3---|
--2---------------------------|
------------------------------|
------------------------------|
------------------------------|
I would have given you all of my heart......


---2--5--7--5--5--3--3--2----|
---------------------------3-|
-----------------------------|
-----------------------------|
-----------------------------|
-----------------------------|
But theres someone whose torn it apart.......

----0---2---3---2---0---2---0-|
---3----------------------3---|
--2---------------------------|
------------------------------|
------------------------------|
------------------------------|
And hes taken just all that I have...........

-----2--0------0---2--0--0----|
-----------3------------3--3--|
------------------------------|
------------------------------|
------------------------------|
------------------------------|
If you want to try to love again.........

Repeat
Tap to rate this tab
# A B C D E F G H I J K L M N O P Q R S T U V W X Y Z