Song name
# A B C D E F G H I J K L M N O P Q R S T U V W X Y Z

Sheryl Crow - Real Gone tab

Help us improve GuitareTab! Take a short survey!
This is my first Tab, i have noticed that there is the chorus missing and i have cracked 
Btw Cars: The Movie Rocked! i'm 17 and i still love it! XD

Artist: Sheryl Crow
Song Title: Real Gone
Album: Cars: The Movie Soundtrack


Verse/Intro
e|-------------------------------|
B|-------------------------------|
G|-------7-7-9-9----------7-7----| X10
D|-9-9-9-7-7-9-9----9-9-9-7-7-7-7|
A|-9-9-9-5-5-7-7----9-9-9-5-5-7-7|
E|-7-7-7------------7-7-7-----5-5|

Leading up to chorus
e|-------------------------------|----|
B|-------------------------------|----|
G|-------7-7-9-9----------7-7----|----|
D|-9-9-9-7-7-9-9----9-9-9-7-7-7-7|-7-7|
A|-9-9-9-5-5-7-7----9-9-9-5-5-7-7|-7-7|
E|-7-7-7------------7-7-7-----5-5|-5-5|

Chorus
e|--------------------------------|
B|--------------------------------|
G|--------77777777--------99999999|
D|99999999777777777777777799999999|
A|99999999555555557777777777777777|
E|77777777--------55555555--------|

e|--------------------------------|
B|--------------------------------|
G|--------77777777--------99999---|
D|99999999777777777777777799999---|
A|99999999555555557777777777777---|
E|77777777--------55555555--------|


Post chorus is like intro/verse but after 2 bars you only play the last chord once
Post Chorus
e|-------------------------------|
B|-------------------------------|
G|-------7-7-9-9----------7-7----|
D|-9-9-9-7-7-9-9----9-9-9-7-7-7-7|
A|-9-9-9-5-5-7-7----9-9-9-5-5-7-7|
E|-7-7-7------------7-7-7-----5-5|

e|-------------------------------|
B|-------------------------------|
G|-------7-7-9-9----------7-7----|
D|-9-9-9-7-7-9-9----9-9-9-7-7-7--|
A|-9-9-9-5-5-7-7----9-9-9-5-5-7--|
E|-7-7-7------------7-7-7-----5--|

Pause

Verse
e|-------------------------------|
B|-------------------------------|
G|-------7-7-9-9----------7-7----| X3
D|-9-9-9-7-7-9-9----9-9-9-7-7-7-7|
A|-9-9-9-5-5-7-7----9-9-9-5-5-7-7|
E|-7-7-7------------7-7-7-----5-5|

Leading up to chorus
e|-------------------------------|----|
B|-------------------------------|----|
G|-------7-7-9-9----------7-7----|----|
D|-9-9-9-7-7-9-9----9-9-9-7-7-7-7|-7-7|
A|-9-9-9-5-5-7-7----9-9-9-5-5-7-7|-7-7|
E|-7-7-7------------7-7-7-----5-5|-5-5|

Chorus
e|--------------------------------|
B|--------------------------------|
G|--------77777777--------99999999|
D|99999999777777777777777799999999|
A|99999999555555557777777777777777|
E|77777777--------55555555--------|

e|--------------------------------|
B|--------------------------------|
G|--------77777777--------9999----|
D|9999999977777777777777779999----|
A|9999999955555555777777777777----|
E|77777777--------55555555--------|


I know the time base isn't right but you get the idea, now for the bit after the chorus 
think its like the choruse but instead of playing each chord 8 times its only 4 like 
(this is what i think, i know its probably wrong but might as well try):
Bridge
e|--------------------------------|
B|--------------------------------|
G|--------7-7-7-7---------9-9-9-9-| X3
D|9-9-9-9-7-7-7-7-7-7-7-7-9-9-9-9-|
A|9-9-9-9-5-5-5-5-7-7-7-7-7-7-7-7-|
E|7-7-7-7---------5-5-5-5---------|

e|---------------------------------|
B|---------------------------------|
G|--------7-7-7-7---------9-9-9-9-9|
D|9-9-9-9-7-7-7-7-7-7-7-7-9-9-9-9-9|
A|9-9-9-9-5-5-5-5-7-7-7-7-7-7-7-7-7|
E|7-7-7-7---------5-5-5-5----------|

Intro/verse through harmonica solo
e|-------------------------------|
B|-------------------------------|
G|-------7-7-9-9----------7-7----| X4
D|-9-9-9-7-7-9-9----9-9-9-7-7-7-7|
A|-9-9-9-5-5-7-7----9-9-9-5-5-7-7|
E|-7-7-7------------7-7-7-----5-5|

pause

Chorus
e|--------------------------------|
B|--------------------------------|
G|--------77777777--------99999999| X4
D|99999999777777777777777799999999|
A|99999999555555557777777777777777|
E|77777777--------55555555--------|

outro like intro/verse but cooler! XD

Outro
e|-------------------------------|
B|-------------------------------|
G|-------7-7-9-9----------7-7----|
D|-9-9-9-7-7-9-9----9-9-9-7-7-7-7|
A|-9-9-9-5-5-7-7----9-9-9-5-5-7-7|
E|-7-7-7------------7-7-7-----5-5|

e|----------------------------------|
B|----------------------------------|
G|-------7-7-9-9----------7-7----X9-|
D|-9-9-9-7-7-9-9----9-9-9-7-7-7--X9-|
A|-9-9-9-5-5-7-7----9-9-9-5-5-7--X7-|
E|-7-7-7------------7-7-7-----5--X--|

e|-------------------------------|
B|-------------------------------|
G|-------7-7-9-9----------7-7----|
D|-9-9-9-7-7-9-9----9-9-9-7-7-7-7|
A|-9-9-9-5-5-7-7----9-9-9-5-5-7-7|
E|-7-7-7------------7-7-7-----5-5|

e|-------------------------------|
B|-------------------------------|
G|-------7-7-9-9----------7-7----|
D|-9-9-9-7-7-9-9----9-9-9-7-7-7--|
A|-9-9-9-5-5-7-7----9-9-9-5-5-7--|
E|-7-7-7------------7-7-7-----5--|

And thats it! like i said the bridge isn't right but please suggest in comments so i can 
this to the enjoyment of the public and the internet surfers!

My first Tab please rate!!!
Razza!
Related for Real Gone tab