Song name
# A B C D E F G H I J K L M N O P Q R S T U V W X Y Z

Shes A Tease - Fiebre De Jack tab

     [Fiebre de Jack - She's a Tease]
Este es el intro que yo saque de oído, si encuentran algún error mejoren la tablatura :)


 [INTRO]

|--10------9-10-12-10-9-10-9-------|
|-----9-10-------------------10-9--|
|----------------------------------|
|----------------------------------|
|----------------------------------|
|----------------------------------|


|--------------14-15-17-18-17--------------------------------------------------------|
|--------14-15----------------18-17-18-17-18-17--------------------------------------|
|--13-14----------------------------------------18-17-18-17-18-17--------------------|
|-----------------------------------------------------------------20-19-20-19-20-19--|
|------------------------------------------------------------------------------------|
|------------------------------------------------------------------------------------|

[http://shesatease.mx/]
      [psycodelyco@hotmail.com]
Tap to rate this tab
 
# A B C D E F G H I J K L M N O P Q R S T U V W X Y Z