Song name
# A B C D E F G H I J K L M N O P Q R S T U V W X Y Z

Shfiut Zmanit - Hakaitz Haaharon tab

   Dm      C#dim+7 C          G                Dm         Am   
e|----------------------------------------8--------10--8------|
B|----------------------------8b10---8h10---10-10---------10\-|
G|-------5--7b9------9b7p5------------------------------------|
D|-7~----------------------7----------------------------------|
A|------------------------------------------------------------|
E|------------------------------------------------------------|

       G                                            Dm          
e|-15b17-b17-b17-b17-b17-b17-b17b15--12-15-12-15-12-15b17-b17--|
B|-------------------------------------------------------------|
G|-------------------------------------------------------------|
D|-------------------------------------------------------------|
A|-------------------------------------------------------------|
E|-------------------------------------------------------------|

  C#dim+7       C                      G                       
e|-15-12----------20b22--22b20-----20b22-b22-b22-b22b20-------|
B|-------15-13\----------------22-----------------------22-22-|
G|------------------------------------------------------------|
D|------------------------------------------------------------|
A|------------------------------------------------------------|
E|------------------------------------------------------------|

      Dm                                  Am                    G  
e|-------17--------17--------17-------17-----20-19----------------|
B|-20b22-----20b22-----20b22----20b22-----22-------20-15----------|
G|-------------------------------------------------------17-16----|
D|-------------------------------------------------------------17-|
A|----------------------------------------------------------------|
E|----------------------------------------------------------------|
Tap to rate this tab
# A B C D E F G H I J K L M N O P Q R S T U V W X Y Z