Song name
# A B C D E F G H I J K L M N O P Q R S T U V W X Y Z

Shh This Is A Library - Cotton tab

-------------------------------------------------------------------------------
		  FRIENDS - Shh... This is A Library
-------------------------------------------------------------------------------
Tabbed by:Volpone

Tuning: Standard

Intro
E|---7--\2-----2p0----------0--2-------------------------------|
B|------------------3----3---------3---------------------------|
G|-------------------------------------------------------------|
D|-------------------------------------------------------------|
A|-------------------------------------------------------------|
E|-------------------------------------------------------------|

Verse
    D            G           Bm         A
e|------0------|------------|--------|--------0----------------|
B|--3------3---|-----3------|----3---|--2h3--------------------|
G|-------------|--------0---|--------|-------------------------|
D|--0----------|------------|--------|-------------------------|
A|-------------|------------|-2------|--0----------------------|
E|-------------|-3----------|--------|-------------------------|

Solo
e|-----7--------------------------------------|
B|--4------7--5/7--7----5/7--8--7--5----------|
G|--------------------------------------------|
D|--------------------------------------------|
A|--------------------------------------------|
E|--------------------------------------------|

Chorus
     D       D/G    D/B     D/A
e|-------|-------|-------|--------------------|
B|---7---|---7---|---7---|---7----------------|
G|---7---|---7---|---7---|---7----------------|
D|---7---|---7---|---7---|---7----------------|
A|---5---|-------|-------|---0----------------|
E|-------|---3---|---7---|--------------------|

Then
     D       G       Bm      A  A/C#
e|-------|---3---|---2---|---0---0-------------|
B|---7---|---4---|---3---|---2---2-------------|
G|---7---|---5---|---4---|---2---2-------------|
D|---7---|---5---|---4---|---2---2-------------|
A|---5---|---5---|---2---|---0---4-------------|
E|-------|---3---|-------|---------------------|

Outro
          Gmaj7                         C
e|--------2-----2h3p2-----2-----2h3p2---0-0-0-0-0-0-0-0-----|
B|--------0-----0---------0-----0-------1-1-1-1-1-1-1-1-----|
G|--------0-----0---------0-----0-------0-0-0-0-0-0-0-0-----|
D|--------0-----0---------0-----0-------2-2-2-2-2-2-2-2-----|
A|--------x-----x---------x-----x-------3-3-3-3-3-3-3-3-----|
E|--3--3--3---3-3------3--3--3--3---------------------------|



As requeseted, official website is http://www.myspace.com/shhthisisalibrary
Records bought on http://www.ihadanaccidentrecords.com/releases/ih017.html
Tap to rate this tab
# A B C D E F G H I J K L M N O P Q R S T U V W X Y Z