Song name
# A B C D E F G H I J K L M N O P Q R S T U V W X Y Z

Shh This Is A Library - Friends tab

-------------------------------------------------------------------------------
		  FRIENDS - Shh... This is A Library
-------------------------------------------------------------------------------
Tabbed by:Volpone

Tuning: Standard


Verse

e|-------------------------------------7+---------------------------|
B|-----0-----1p0--------------------------7+------------------------|
G|----------------0----------4-----4---------7+---------------------|
D|-------------------0/2--4-----4-----------------------------------|
A|--3-----3---------------------------------------------------------|
E|------------------------------------------------------------------|

Chorus
e|------------------------------------------------------------------|
B|-----0-----1p0----------------------------------------------------|
G|----------------0----------4-----4--------------------------------|
D|-------------------0/2--4-----4-----------------------------------|
A|--3-----3----------------------------2----------------------------|
E|----------------------------------------3-------------------------|

Outro
e|------------------------------------------------------------------|
B|------------------------------------------------------------------|
G|------------------------------------------------------------------|
D|------------------------------------------------------------------|
A|--------------/7--7-----------------------------------------------|
E|--5--5--5--5---------7--3-----------------------------------------|



Chords of the Chorus are

C            Em    Bm G
x  x  x  x  |x  x  x  X  |



************************************

| /   slide up
| p   pull-off
| +   harmonic

************************************

As requeseted, official website is http://www.myspace.com/shhthisisalibrary
Records bought on http://www.ihadanaccidentrecords.com/releases/ih017.html
Tap to rate this tab
# A B C D E F G H I J K L M N O P Q R S T U V W X Y Z