Song name
# A B C D E F G H I J K L M N O P Q R S T U V W X Y Z

Shh This Is A Library - Your Skin Or My Mouth tab

-------------------------------------------------------------------------------
			     YOUR SKIN OR MY MOUTH - Shh... This Is A Library
-------------------------------------------------------------------------------
Tabbed by:Volpone


Tuning:Standard

The guitars come in one after the other and repeat until the end

Gtr 1
e|-----------0-------|-----------0-------|
B|---1-----------1---|---1-----------1---|
G|-------2-----------|-------2-----------|
D|-------------------|-------------------|
A|-------------------|-------------------|
E|-------------------|-------------------|

Gtr 2
e|-----3-----3--3-----3----|-----3-----3--3-----3--|
B|--1-----1-------1-----1--|--5-----5--------5-----|
G|-------------------------|-----------------------|
D|-------------------------|-----------------------|
A|-------------------------|-----------------------|
E|-------------------------|-----------------------|


Then the third guitar comes in playing these chords

     F       C      C/B
e|---1---|---0---|---0----|
B|---1---|---1---|---1----|
G|---2---|---0---|---0----|
D|---3---|---2---|---0----|
A|---3---|---3---|---2----|
E|---1---|-------|--------|

This pattern
F         C   C/B
X X X X | X X X X |

Bit at the end
e|-------------------------------------------|
B|-------------------------------------------|
G|--------------------------------7--9-------|
D|-------------------------------------------|
A|--3--3/5--5/7--7/8--8/10--10\8--------5\3--|
E|-------------------------------------------|

e|------------------------------|
B|------------------------------|
G|------------------------------|
D|------------------------------|
A|--3--3/5--5/7--7/8--8/10--10--|
E|------------------------------|

Tap to rate this tab
# A B C D E F G H I J K L M N O P Q R S T U V W X Y Z