Song name
# A B C D E F G H I J K L M N O P Q R S T U V W X Y Z

Shh This Is A Library - Okay With Okay chords

Highlighted       Show chord diagrams
-------------------------------------------------------------------------------
			     OKAY WITH OKAY - Shh... This Is A Library
-------------------------------------------------------------------------------
Tabbed by: Volpone


Tuning: Standard


Only three chords to this one

      Am        G         G/F#
e|----0----|----3-----|----3----|----|
B|----1----|----3-----|----3----|----|
G|----2----|----0-----|----0----|----|
D|----2----|----0-----|----0----|----|
A|----0----|----2-----|----x----|----|
E|---------|----3-----|----2----|----|

Play as such:

Am           G     G/F#
X  X  X  X | X  X  X  X  |


Repeat til the end :)
Tap to rate this tab
# A B C D E F G H I J K L M N O P Q R S T U V W X Y Z