Shiela And The Insects - Quick To Panic chords

Highlighted       Show chord diagrams
QUICK TO PANIC by Shiela and the Insects


INTRO: F#m-D-

   F#m
e|-9--9--9---12--9--9--9--9---12--|
B|-10-10-10--10--10-10-10-10--10--|
G|-11-11-11--11--11-11-11-11--11--|
D|--------------------------------|
A|--------------------------------|
E|--------------------------------|
   D
e|--------------------------------|
B|-10-10-10--12--12-12-12-12--12--|
G|-11-11-11--11--11-11-11-11--11--|
D|-12-12-12--12--12-12-12-12--12--|
A|--------------------------------|
E|--------------------------------|


VERSE:
 F#m
 You're so quick to panic
  
 controlled suicide
     D   
 You don't turn me on
     Bm
 you don't turn me on 

     F#m
 You cut me down to size

 you're so full of lies
    D
 So quick to pass the blame
      Bm
 such reckless paradise


REFRAIN:
     D
 You don't turn me on
     Bm                  F#m-D-F#m-D                 
 You don't turn me on at all


VERSE:
 F#m
 Must you always rush
                            D-Bm
 just because you just must
  

 F#m
 Must you always rush
                            D-Bm
 just because you just must


REFRAIN:
     D
 You don't turn me on
     Bm
 You don't turn me on
     D
 You don't turn me on
     Bm                                 
 You don't turn me on at all


CHORUS:
 A          C#m
 Frantic suicide
 F#m        E
 frantic suicide gone wrong now
 A          C#m
 Frantic suicide
 F#m        E
 frantic suicide gone wrong now 


SOLO: A-C#m-F#m-E


REFRAIN:
     A
 You don't turn me on
     C#m
 You don't turn me on
     F#m              E
 You don't turn me on

     A
 You don't turn me on
     C#m
 You don't turn me on
     F#m              E
 You don't turn me on


CHORUS:
 A          C#m
 Frantic suicide
 F#m        E
 frantic suicide gone wrong now
 A          C#m
 Frantic suicide
 F#m        E
 frantic suicide gone wrong now 
 A
 Woh oh oh oh oh


OUTRO: D--A-F#m



NITRAM
05-09-11
06:03 PM
Tap to rate this tab
 
# A B C D E F G H I J K L M N O P Q R S T U V W X Y Z