Song name
# A B C D E F G H I J K L M N O P Q R S T U V W X Y Z

Shifty - Shorty Rock tab

Hey This is Jake again :D Shorty Rock is like my life in a nutshell and so is All Along
is a song i just resently recorded about last week i learned it by ear too. Hope You
enjoy and if you have gone to check it out press back and go to all along and LEARN IT 
its awesome well again here is a Shifty making with TC on the Guitar.
Jake Ness (nessj_kula@yahoo.com)
Oh Yeah its all down strokes except in the middle of Am's its up and down strokes and
E's its picking
Intro:
     Am               Am              E             E
E|----x---------------x---------------x-------------x-x----------|
x|----1--1-1-1-1-1----1--1-1-1-1-1----0--0h1-3-1-0--x-x---0h1---0|
x|----2--2-2-2-2-2----2--2-2-2-2-2----1-1-----------1-1-2-----2--|
x|----2--2-2-2-2-2----2--2-2-2-2-2----2-------------2-2----------|
x|-0----------------0---------------2---------------2-2----------|
E|-0----------------0---------------0---------------0-0----------|

Play this like 18 times o.O its soo long almost the whole song until this next part atleast
(his next Part I dont know what to call it Bridge Maybe? uhmm...)
   Am             C              E              G  Right here You Play as
                                                       you slide to 5th fret
E|-0--------------0--------------0--------------2---2//5-5-5|
x|-1-1-1-1-1-1-1--1-1-1-1-1-1-1--0-0-0-0-0-0-0--0-0-0-00-0-0|
x|-2-2-2-2-2-2-2--0-0-0-0-0-0-0--1-1-1-1-1-1-1--0-0---------|
x|-2---2-2-2-2-2--2-2-2-2-2-2-2--2-2-2-2-2-2-2--0-----------|
x|-0--------------3--------------2--------------2-----------|
E|-0--------------0--------------0--------------3-----------|

Intro
Bridge thing
Intro just a short version of it

X-Muted Note
XhX-Hammer to the next note
x//x-slow slide to the next note
Tap to rate this tab
# A B C D E F G H I J K L M N O P Q R S T U V W X Y Z