Song name
# A B C D E F G H I J K L M N O P Q R S T U V W X Y Z

Shifty - All Along tab

Help us improve GuitareTab! Take a short survey!
Hey i just found this awesome song and i couldnt find tabs so I decided to Tab it myself 
14 and I have ben Playing Guitar for 2 years and this is my first tab. Comment Please 
tell people about these songs they are sick
Tabed by: Jake Ness (nessj_kula@yahoo.com)

Intro:
E|-----------------------------------------------------------------|
B|----7-7-7-7-5--3--3h5--------------------------------------------|
G|----7-7-7-7-7--4--4----4-(4/2)-2-(2/4)-4-------------------------|
D|-----------------------2-(2/0)-0-(0--)-0-------------------------|
A|-----------------------------------------------------------------|
E|-----------------------------------------------------------------|

Verse:

E|-X-X/3-3-------------------------------------------------------|
B|-7-7/3-3-------------------------------------------------------|
G|-7-7/4-4-------------------------------------------------------|
D|-7-7/5-5-----------------Play 8 times--------------------------|
A|-5-5-5-5-------------------------------------------------------|
E|-5-5/3-3-------------------------------------------------------|

Bridge & Chorus:

E|-5-5-5-5-5--5-5-5-------------------------------------------|
B|-7-7-7-7-7--8-7-5-------------------------------------------|
G|-7-7-7-7-7--7-7-7-------------------------------------------|
D|-7-7-7-7-7--7-7-7----------Play 8 times---------------------|
A|-5-5-5-5-5--5-5-5-------------------------------------------|
E|-5-5-5-5-5--5-5-5-------------------------------------------|

Outro:

E|-5----3-3-3-------------------------------------------------|
B|-7----3-3-3-------------------------------------------------|
G|-7----4-4-4-------------------------------------------------|
D|-7----5-5-5-------------Play 2 Times------------------------|
A|-5----5-5-5-------------------------------------------------|
E|-5----3-3-3-------------------------------------------------|

X  - Muted note
X/X- Slide
XhX- Hammer on to the next note
(X)- Can Be played

Intro
Verse
Bridge&Chorus
Verse
Bridge&Chorus
Intro (twice)
Bridge and Chorus
Related for All Along tab