Guitaretab - guitar tabs
Song name
# A B C D E F G H I J K L M N O P Q R S T U V W X Y Z

Shifty - Slide Along Side tab

*Standart Tuning*

Hey Folks this is how it sounds when you play it on the gitar.

Intro And Courus:
[ Tab from: ]
E -------------------------|
B -14-13----14-13-16-------|
G ------13------13---------|
D -------------------------|
A -------------------------|
E -------------------------|

True the verses you have something like:
E -----------------|
B -----------------|
G -13-13-12--------|
D ----------13-14--|
A -----------------|
E -----------------|

That's all...


Sander Stijnen
Related for Slide Along Side tab