Song name
# A B C D E F G H I J K L M N O P Q R S T U V W X Y Z

Shihad - Pacifier tab

-----------------------------------------------------------------------------|
-------------------------- PACIFIER - Shihad --------------------------------|
-----------------------------------------------------------------------------|

Tabbed by: Lewis
Email:     stupid_idiotic_fool777@hotmail.com
Tuning:    Drop D

This is my way of playing this song. I reckon it sounds more like the original than the 
tabs so here it is...


INTRO/VERSE

        play x3            then this for the 4th time
e|---------------------|    e|---------------------|
B|---------------------|    B|---------------------|
G|---------------------|    G|---------------------|
D|-7--5---9-5-7--7-7---|    D|-7--7-7---7--7-7-----|
A|-5--5-5-5-5-5--5-5---|    A|-5--5-5---5--5-5-----|
D|---------------------|    D|-5--5-5---5--5-5-----|


CHORUS

e|--------------------|
B|--------------------|
G|--------------------|
D|-7----9----5--------|
A|-7----9----5--------|
D|-7----9----5--------|
Tap to rate this tab
# A B C D E F G H I J K L M N O P Q R S T U V W X Y Z