Song name
# A B C D E F G H I J K L M N O P Q R S T U V W X Y Z

Shihad - Pacifier tab

-----------------------------------------------------------------------------
			     Pacifier - Shihad
-----------------------------------------------------------------------------
Tabbed by: Hayden
Email: kiwicantfly@gmail.com

Tuning: Standard

First part: 3x            Second part: 1x

e|--------------------|    e|---------------------|
B|--------------------|    B|---------------------|
G|-2-0---4---2-2-2----|    G|--2-2----2-2---------|
D|-0-0-0-0-0-0-0-0----|    D|--5-5----5-5---------|
A|--------------------|    A|---------------------|
E|--------------------|    E|---------------------|

Chorus:

e|-------------------------|
B|-------------------------|
G|--2-2---4-4--------------|
D|--2-2---4-4---5-5--------|
A|--0-0---2-2---5-5--------|
E|--------------3-3--------|

This is the way it is played on the album. It's a very easy song to learn, listen to the 
to get the timing right.

Any comments/corrections please e-mail kiwicantfly@gmail.com
Tap to rate this tab
 
# A B C D E F G H I J K L M N O P Q R S T U V W X Y Z