Song name
# A B C D E F G H I J K L M N O P Q R S T U V W X Y Z

Shihad - Shot In The Head tab

----------------------------------------------------------------------------
		     SHOT IN THE HEAD - Shihad
----------------------------------------------------------------------------
Tabbed by: greg 
Email: sambro_96@hotmail.com

Tuning: Drop D 
 
Intro 
e|------------------------------------------------------|
B|------------------------------------------------------|
G|----7-------------------------------------------------|
D|------------------------------------------------------|
A|----5-------------------------------------------------|
E|------------------------------------------------------|

Verse 
e|------------------------------------------------------|
B|------------------------------------------------------|
G|------------------------------------------------------|
D|------------------------------------------------------|    
A|----5----5/6--5----5/6--5----5/6--5---3---------------|
E|------------------------------------------------------|

Chorus 
e|------------------------------------------------------|
B|------------------------------------------------------|
G|----3-3-3-3-3-3-3-3-5---5-5-5-5-5-5-5-----------------|
D|----3-3-3-3-3-3-3-3-5---5-5-5-5-5-5-5-----------------|   
A|----1-1-1-1-1-1-1-1-3---3-3-3-3-3-3-3-----------------|
E|------------------------------------------------------|

Interlude 
e|------------------------------------------------------|
B|------------------------------------------------------|
G|---------7--5--7--5/7---------------------------------|
D|----0----7--5--7--5/7----5-6-5-0-3--------------------|   
A|----0----5--3--5--3/5----5-6-5-0-3--------------------|
E|----0--------------------5-6-5-0-3--------------------|


Intro
Verse x8
Chorus x4
Intro
Verse x4
Chorus x4
Verse x2
Interlude x8
Intro
Chorus x8
Verse x2

| /  slide up
| \  slide down
| h  hammer-on
| p  pull-off
| ~  vibrato
| +  harmonic
| x  Mute note
===================================================================
Tap to rate this tab
 
# A B C D E F G H I J K L M N O P Q R S T U V W X Y Z