Song name
# A B C D E F G H I J K L M N O P Q R S T U V W X Y Z

Shihad - You Again tab

This song kicks ass so much. I havent found a tab on the net and it is a must Shihad song to learn.

Drop D tuning:

Intro/Main riff:
e|--------------------------------------------------|
B|--------------------------------------------------|
G|--------------------------------------------------|
D|-0000-000--------0000-000--------0000-000---------|x lots
A|-0000-000-2------0000-000-2------0000-000-2-------|
D|-0000-000---3b---0000-000---3b---0000-000---3b----|

Then this every once in a while:
e|--------------------------------------------------|
B|--------------------------------------------------|
G|--------------------------------------------------|
D|-0000-000--------0000-000--------0000-000---------|
A|-0000-000-2------0000-000-2------0000-000-2--3b---|
D|-0000-000---3b---0000-000---3b---0000-000-2--3b---|

Interlude: Gtr 1
e|--------------------------------------------------|
B|--------------------------------------------------|
G|--------------------------------------------------|
D|-------12-------12-------12-12-------12-----------|
A|-------10-------10-------10-10-------10-----------|
D|-0-0-0----0-0-0----0-0-0-------0-0-0----0-0-0-----|
 |                                                  |
 |  Interlude: Gtr 1     (its not correct!)         |
e|--------------------------------------------------|
B|--------------------------------------------------|
G|--------------------------------------------------|
D|-/12-10----------121212---/12-10----------121212--|
A|--------12p10-8-------------------12p10-8---------|
D|--------------------------------------------------|

Thats most of the song, there is more but i am as yet to figure it out and most like wont.

| b  bend
| /  slide up
| \  slide down
| h  hammer-on
| p  pull-off
| ~  vibrato
| +  harmonic
| x  Mute note
===============================================================================
Tap to rate this tab
 
# A B C D E F G H I J K L M N O P Q R S T U V W X Y Z