Song name
# A B C D E F G H I J K L M N O P Q R S T U V W X Y Z

Shiina Ringo - Shuraba tab

Tuning: Standard EADGBe

Chords used:
Gm -   355333
Am -   x02210
Dm -   xx0231
D -    xx0232
C -    x32010
D/F# - 2x023x
G -    320003
A/C# - x4222x
A/C -  x3x2xx
A/B -  x2x2xx
C/E -  x-7-10-9-x-x-x---|
Fi -   x-10-12-12-x-x-x-|
Ai -   x-12-14-14-x-x-x-|


Intro: Gm-Am-Dm (x3) Gm-Am-Dm-D

Guitar 2:
e|-------5--------5-|
B|-3-3-3----3-3-3---|
G|------------------|
D|------------------| (x4)
A|------------------|
E|------------------|


Verse 1:
Gm  Am   Dm      Gm      Am     Dm
mijikayo hande, uso to kuramu tozo
Gm Am  Dm    Gm   Am     Dm
utagau nante azamashii desu


Refrain 1:
   Gm   C        F  D/F# G        
    A(great bass line)
hi no moto mitometa ano ude no shiro sa made


Chorus 1:
        Gm Am Dm        Gm  Am      Dm
wasuretara  kogoezu ni atatamaru no ka
  Gm         Am   Dm        Gm   Am  Dm
issou kono mama kayowanai tote kamawanai


Cool Riff:
e|-------5--------5--------8-8-8-6-6-6-5-5-5-5h6p6---|
B|-3-3-3----3-3-3----6-6-6-------------------------6-|
G|---------------------------------------------------|
D|---------------------------------------------------| (x4)
A|---------------------------------------------------|
E|---------------------------------------------------|


Verse 2:
Gm   Am   Dm        Gm       Am     Dm
kasa no yuki no, shizen ga wazawa hiya
Gm  Am   Dm       Gm  Am  Dm
kurobamu mae ni hatarakimasu


Refrain 2:
  Gm   C        F  D/F#   G       
       A(great bass line)
yurete wa owari to ano natsu no kitai wo seme


Chorus 2:
     Gm Am  Dm       Gm    Am   Dm
aoidara  haiiro ni sana sharasouju
   Gm        Am    Dm        Gm Am   Dm
issou kono mama shigeranai tote itowanai


Bridge:
Bb        A      A/C#  Dm  A/C#  
    A/B
  dare ka ni aeba    kioku wo dasshu mareyou
Gm        A         Dm   C/E  Fi  Ai  Bb    A(hold)
  nodo wo tsukaeba anata ga koborei de afureyou


Guitar Solo: Gm-Am-Dm (x4) then 
bass line)


Chorus 3:
Gm  Am   Dm         Gm  Am      Dm
Aaahh..kore ijou shiritaku nado nai
Gm           Am  Dm          Gm   Am    Dm
issou kono mama nemutte iraretara ii no ni
Gm(magulo)
ai! anata no kubisuji ga
  Gm         Am  Dm         Gm   Am    Dm
kitto ima wa mou masshiroku suki totte iru


Interlude: Gm-Am-Dm (x4)


Cool Riff:
e|-------5--------5--------8-8-8-6-6-6-5-5-5-5h6p6---|
B|-3-3-3----3-3-3----6-6-6-------------------------6-|
G|---------------------------------------------------|
D|---------------------------------------------------| (x8)
A|---------------------------------------------------|
E|---------------------------------------------------|

http://shiina.peach-arrow.net/
Tap to rate this tab
# A B C D E F G H I J K L M N O P Q R S T U V W X Y Z