Guitaretab - guitar tabs
Song name
# A B C D E F G H I J K L M N O P Q R S T U V W X Y Z

Shikari - Robot Wars chords

http://www.bacteria.nl/Shikari_Frame.htm
1
                      3x
E||------------------------||----------------------|
B||------------------------||----------------------|
G||----------------------*-||----------------------|
D||------------0---------*-||------------0---------|
A||-------0---------0------||-------0--------------|
D||--8---------------------||--8--------------8----|
2
                     3x
|-------------------------||----------------------|
|-------------------------||----------------------|
|*----------------------*-||----------------------|
|*------------0---------*-||------------0---------|
|--------0---------0------||-------0--------------|
|---5---------------------||--5--------------5----|

1
2

----------------------|----------------------|
----------------------|----------------------|
----------------------|----------------------|
------------0---------|------------0---------|
-------0--------------|-------0--------------|
--3-------------------|-----------------3----|


----------------------|----------------------|
----------------------|----------------------|
----------------------|----------------------|
------------0---------|------------0---------|
-------0--------------|-------0--------------|
--2-------------------|-----------------2----|


    PM   PM   PM   PM
|-------------------------||----------------------|
|-------------------------||----------------------|
|*----------------------*-||----------------------|
|*----------------------*-||--0-------------------|
|---0----0----0----0------||--0-------------------|
|---0----0----0----0------||--0-------------------|
[ Tab from: http://www.guitaretab.com/s/shikari/191959.html ]
3
------------------------------------------------------|
------------------------------------------------------|
-3---------------5-----7--------10--------9---7-------|
------------------------------------------------------|
-1---------------3-----5--------8---------7----5------|
------------------------------------------------------|
4
------------------------------------------------------|
------------------------------------------------------|
-3---------------5-----7--------19--------------------|
------------------------------------------------------|
-1---------------3-----5--------17--------------------|
------------------------------------------------------|

3

5
------------------------------------------------------|
------------------------------------------------------|
-3---------------5------------------------------------|
------------------------7-----------------------------|
-1---------------3------------------------------------|
------------------------7-----------------------------|

6
--------------------------------------------------------------------------------|
----------V------------------------------------------------------------------X--|
-10-10-10--------------9-9-9--------------10-10-10------7-5-7-9-7-9-12-10-9-----|
--------------------------------------------------------------------------------|
-8---8---8---0-0-0-----7-7-7---0-0-0-----8--8---8-------5-3-5-7-5-7-10-8--7-----|
---------------0-0-0--------------0-0-0-----------------------------------------|
Repeat at V
Stop at the X the second time
7
-------------------------------------------------------------|
-------------------------------------------------------------|
-5-----3------7----8---7-------5----3----7----19-------------|
-------------------------------------------------------------|
-3-----1------5----6---5-------3----1----5----17-------------|
-------------------------------------------------------------|
8
------------------------------------------|
------------------------------------------|
-17-----15-----19-----20-----19-----------|
------------------------------------------|
-15-----13-----17-----17-----17-----------|
------------------------------------------|
4x But second and fourth time no 17x20 but just 17x19


9
----------------------------|
----------------------------|
------------10--9-----------|
----------------------------|
-0-0-0-0--8---7-------------|
-0-0-0-0--------------------|
X4

Open D en slide from 12 down

9  4x
9 4x
With some variations in the last two 9s