Song name
# A B C D E F G H I J K L M N O P Q R S T U V W X Y Z

Shimatani Hitomi - Sarasouju tab

I'm not quite sure about the intro.

E-----------------------------------------------|
A-----------------------------------------------|
D-----------------------------------------------|
G-----------------------------------------------|
B-3----------3-1-3-3----3-1-3-3-1-3-3-1-3-3-----|
e---3-0-7-8-0--------3-0-------------------3-0--|

E-----------------------------------------------|
A-----------------------------------------------|
D-----------------------------------------------|
G-----------------------------------------------|
B-3-------3-1-3-1-------------------------------|
e--0-7-8-0-------3-5-0--------------------------|

That's pretty much it, just memorize the sequence and you'll be fine.

http://www.avexnet.or.jp/shimatani/
Tap to rate this tab
 
# A B C D E F G H I J K L M N O P Q R S T U V W X Y Z