Song name
# A B C D E F G H I J K L M N O P Q R S T U V W X Y Z

Shindig - The Ocean And You tab

Standard Tuning

(Guitar 1 - Throughout song) Listen to figure out the strumming pattern
e|-x---x---x--|
b|-x---x---x--|
g|-x---x---x--|
d|-0---2---2--|
a|-2---3---2--|
e|-3---0---0--|


Intro (Guitar 2)
e|--------------------------------------------|
b|--------------------------------------------|
g|--------------------------------------------|
d|-10\12-10-9-5---10\12-10-9-5\7-5-4-5-4-2-0--|
a|--------------------------------------------|
e|--------------------------------------------|

e|-----------------------------------------------------------|
b|-----------------------------------------------------------|
g|-----------------------------------------------------------|
d|-10\12-10-9-5---10\12-10-9-2---10\12-10-9-5\7-5-4-5-4-2-0--|
a|-----------------------------------------------------------|
e|-----------------------------------------------------------|

Bridge 1 (Guitar 2)
e|--------------------------------------------------------|
b|--------------------------------------------------------|
g|--------------------------------------------------------|
d|-10\12-10-9-5---10\12-10-9-5\7-5-4-5-4-2-0---0-7-5-4-5--|
a|--------------------------------------------------------|
e|--------------------------------------------------------|

Bridge 2 (Guitar 2)

e|-------------| |-----------|
b|-------------| |-----------|
g|-14\16-14-12-| |-16-14-12--| (Repeat x7)
d|-------------| |-----------|
a|-------------| |-----------|
e|-------------| |-----------|

e|---------------------------------------------------------------------|
b|-15-------15-------15-------15-------15-------15-------15--------15--|
g|----14-12----14-12----14-12----14-12----14-12----14-12----14--12-----|
d|---------------------------------------------------------------------|
a|---------------------------------------------------------------------|
e|---------------------------------------------------------------------|

Final bridge not Included yet simply because I haven't had time to tab it out

Tap to rate this tab
 
# A B C D E F G H I J K L M N O P Q R S T U V W X Y Z