Song name
# A B C D E F G H I J K L M N O P Q R S T U V W X Y Z

Shinedown - Sound Of Madness tab

Shinedown, Sound of Madness
Tabbed by rracer12@hotmail.com
Tuning: (low to high) D A D G B E

\ slide down
^ bend
~ hold note

Intro
E|--------------------------------------------------|
B|--------------------------------------------------|
G|--------------------------------------------------|
D|-6-6--6-5-3-0--3----------------------------------|
A|-----------------5\------5---5---5---5---5--------|
D|-----------------------0---0---0---0---0----------|
repeats 4 times, on the 3rd time the last part goes about 7 times instead of 5, and on 
fourth it ends with,

E|---------|
B|---------|
G|---------|
D|-6-6-6-6-|
A|-6-6-6-6-|
D|-6-6-6-6-|

verse
Guitar 1
E|----------------------------------------------------------------------|
B|----------------------------------------------------------------------|
G|----------------------------------------------------------------------|
D|-3---------------------------6-6--6-5-3-0--3---------------6666-55-30-|
A|---5\---5---5---5---5---5-------------------5\---5---5---5-6666-55-30-|
D|------0---0---0---0---0------------------------0---0---0---6666-55-30-|

guitar 1
E|-------------------------------------------------------------------------|
B|-------------------------------------------------------------------------|
G|-------------------------------------------------------------------------|
D|-3------------------3---------6-6--6-5-3-0--3-----------------6666-55-30-|
A|---5\----5---5---5----5\---5-------------------5\---5---5---5-6666-55-30-|
D|-------0---0---0---------0------------------------0---0---0---6666-55-30-|
repeat 2 times but on the second end with

E|--------------|
B|--------------|
G|--------------|
D|-6-6--6-5-3-0-|
A|--------------|
D|--------------|

guitar 2
E|-----------------------------------------------------------------------|
B|-----------------------------------------------------------------------|
G|-----------------------------------------------------------------------|
D|-3-----------------0--3---------6-6-5-5-3-------------------6666-55-30-|
A|---5\-0-0--3-3---------5\--0-0--6-6-5-5---5\--0-0-3-3----0--6666-55-30-|
D|------0-0--3-3-3\----------0-0--6-6-5-5-------0-0-3-3-3\----6666-55-30-|
repeat 2 times and on the second time guitar 1 finishes with the intro part

Chorus
E|-------------------------------------------------------------------------|
B|-------------------------------------------------------------------------|
G|-------------------------------------------------------------------------|
D|8-8-8-8-8--8-8--8-0-0-0-0-0-0-0-0-3-3-3-3-3-3-3-3-10-10-10-10-10-10-10-10|
A|8-8-8-8-10-8-11-8-0-0-0-0-0-0-0-0-3-3-3-3-3-3-3-3-10-10-10-10-10-10-10-10|
D|8-8-8-8-8--8-8--8-0-0-0-0-0-0-0-0-3-3-3-3-3-3-3-3-10-10-10-10-10-10-10-10|
play twice

then finish with
E|----------------------------|
B|----------------------------|
G|----------------------------|
D|-6-6-6-6-6-6-6-6-5-3-0-3----|
A|-------------------------5\-|
D|----------------------------|
then back to the verse

solo part
Guitar 1
E|---------------------------|--------------------------|
B|-10-8-10-5-----------------|10-8-10-5-----------------|
G|-----------7-7^-7-4-5-7-2~-|----------7-7^-7-4-5-7-9~-|
D|---------------------------|--------------------------|
A|---------------------------|--------------------------|
D|---------------------------|--------------------------|
Play all the notes fast on the second time, i think its about 8 times for every note or 
bit longer.

Guitar 2
E|-------------------------------------------------------------------------|
B|-------------------------------------------------------------------------|
G|-------------------------------------------------------------------------|
D|-7-7-7-7-7-7-7-7-10-10-10-10-10-10-10-10-5-5-5-5-5-5-5-5-0-0-0-0-0-0-0-0-|
A|-7-7-7-7-7-7-7-7-10-10-10-10-10-10-10-10-5-5-5-5-5-5-5-5-0-0-0-0-0-0-0-0-|
D|-7-7-7-7-7-7-7-7-10-10-10-10-10-10-10-10-5-5-5-5-5-5-5-5-0-0-0-0-0-0-0-0-|

E|-------------------------------------------------------------------------|
B|-------------------------------------------------------------------------|
G|-------------------------------------------------------------------------|
D|-7-7-7-7-7-7-7-7-10-10-10-10-10-10-10-10-5-5-5-5-5-5-5-5-8-8-8-8-8-8-8-8-|
A|-7-7-7-7-7-7-7-7-10-10-10-10-10-10-10-10-5-5-5-5-5-5-5-5-8-8-8-8-8-8-8-8-|
D|-7-7-7-7-7-7-7-7-10-10-10-10-10-10-10-10-5-5-5-5-5-5-5-5-8-8-8-8-8-8-8-8-|

Quiet part
Guitar 1
E|--------------|play really fast for each, im not to sure about the 11th
B|-11--10--6--8-|fret, but it sounds right.
G|--------------|
D|--------------|
A|--------------|
D|--------------|

Guitar 2
with bass lines
E|-----------------------------------------------------------------|
B|-10--6---8---11--10--6-------------------------------------------|
G|-----------------------------------------------------------------|
D|------------------------5------------6-6-6-6-6-6-6-6-6-6-6-6-6-6-|
A|-------------8----------3-builds up------------------------------|
D|-0---3---5---8---0---3-------------------------------------------|

Back to Chorus, play 4 times
On the fourth finish with this
E|------------------------------------------------------------------|
B|------------------------------------------------------------------|
G|------------------------------------------------------------------|
D|-8-8-8-8-8--8-8--8-0-0-0-0-0-0-0-0-3-3-3-3-3-3-3-3-6-6-6-6-6-6----|
A|-8-8-8-8-10-8-11-8-0-0-0-0-0-0-0-0-3-3-3-3-3-3-3-3----------------|
D|-8-8-8-8-8--8-8--8-0-0-0-0-0-0-0-0-3-3-3-3-3-3-3-3----------------|

E|------------------------------------|
B|------------------------------------|
G|------------------------------------|
D|-6-6-5-3-0-3------------------------|
A|-------------5\---5---5---5---5---5-|
D|----------------0---0---0---0---0---|2x

E|-------------------------------|
B|-------------------------------|
G|-------------------------------|
D|-6-6-6-5-3-0--6-6-6-5-3-0-3----|
A|----------------------------5\-|
D|-------------------------------|

I think this is the first complete song and im pretty sure its 99.99% right, so injoy!
Tap to rate this tab
# A B C D E F G H I J K L M N O P Q R S T U V W X Y Z