Guitaretab - guitar tabs
Song name
# A B C D E F G H I J K L M N O P Q R S T U V W X Y Z

Shinedown - Breaking Inside tab

-------------------------------------------------------------------------------
			     BREAKING INSIDE - Shinedown
-------------------------------------------------------------------------------

This is by far my most favorite song by Shinedown, it has great lyrics and it is awesome to
play, so iím glad i could share it with you. This is my first tab, Iíd say itís probably 
correct

Guitar I: Acoustic, capo on 3rd fret
Guitar II: Electric Distorted

VERY IMPORTANT NOTE: Please remember to have a capo on the 3rd fret JUST for guitar I, not
guitar II.

Tuning: Standard

Intro:
Gtr I: (capo on 3rd)
e|----------------------------------------|
B|----------------------------------------|
G|------0---------0--------0---------0----|
D|----4---4-----4---4----4---4-----4---4--|
A|----------------------------------------|
E|--0-------0----------0-------0----------|

Verse:
Gtr I: (capo on 3rd)
e|----------------------------------------|----------------------------------------|
B|----------------------------------------|----------------------------------------|
G|------0---------0--------0---------0----|------0---------0--------0---------0----|
D|----4---4-----4---4----4---4-----4---4--|----4---4-----4---4----4---4-----4---4--|
A|----------------------------------------|---------------------0-------0----------|
E|--0-------0----------0-------0----------|--3-------3-----------------------------|


e|----------------------------------------|----------------------------------------|
B|----------------------------------------|----------------------------------------|
G|------0---------0--------0---------0----|------0---------0--------0---------0----|
D|----4---4-----4---4----4---4-----4---4--|----4---4-----4---4----4---4-----4---4--|
A|----------------------------------------|---------------------0-------0----------|
E|--0-------0----------0-------0----------|--3-------3-----------------------------|

e|----------------------------------------|
B|----------------------------------------|
G|------0---------0--------0---------0----|
D|----4---4-----4---4----4---4-----4---4--|
A|---------------------0------0-----------|
E|--3------3------------------------------|
       ^^Gtr II (standard) comes in here^^ and plays this:

e|---------------------------------------------------------------------------|
B|---------------------------------------------------------------------------|
G|--3-3-3-3-3-3-3-3-5-5-5-5-5------------------------------------------------|
D|--3-3-3-3-3-3-3-3-5-5-5-5-5------------------------------------------------|
A|--1-1-1-1-1-1-1-1-3-3-3-3-3------------------------------------------------|
E|---------------------------------------------------------------------------|

Chorus:
[ Tab from: http://www.guitaretab.com/s/shinedown/113430.html ]
Gtr I: (capo on 3rd)
e|-3-|-2-|-0-|-0-|-3-|-0-|-2-|
B|-3-|-3-|-2-|-0-|-3-|-2-|-4-|
G|-0-|-2-|-2-|-1-|-0-|-2-|-4-|
D|-0-|-0-|-2-|-2-|-0-|-2-|-4-|
A|-2-|---|-0-|-2-|-2-|-0-|-2-|
E|-3-|---|---|-0-|-3-|---|---|

e|-3-|-2-|-0-|-0-|-3-|-0-|-2-|-3-|-0-|-2-|
B|-3-|-3-|-2-|-0-|-3-|-2-|-4-|-3-|-2-|-4-|
G|-0-|-2-|-2-|-1-|-0-|-2-|-4-|-0-|-2-|-4-|
D|-0-|-0-|-2-|-2-|-0-|-2-|-4-|-0-|-2-|-4-|
A|-2-|---|-0-|-2-|-2-|-0-|-2-|-2-|-0-|-2-|
E|-3-|---|---|-0-|-3-|---|---|-3-|---|---|


Gtr. II: (standard)
e|---|---|---|---|---|---|---|
B|---|---|---|---|---|---|---|
G|-3-|---|-5-|---|-3-|-5-|-7-|
D|-3-|-3-|-5-|-5-|-3-|-5-|-7-|
A|-1-|-3-|-3-|-5-|-1-|-3-|-5-|
E|---|-1-|---|-3-|---|---|---|

e|---|---|---|---|---|---|---|---|---|---|
B|---|---|---|---|---|---|---|---|---|---|
G|-3-|---|-5-|---|-3-|-5-|-7-|-3-|-5-|-7-|
D|-3-|-3-|-5-|-5-|-3-|-5-|-7-|-3-|-5-|-7-|
A|-1-|-3-|-3-|-5-|-1-|-3-|-5-|-1-|-3-|-5-|
E|---|-1-|---|-3-|---|---|---|---|---|---|

Solo:
Gtr. II: (standard)
e|--------------------------------------------|
B|--------------------------------------------|
G|-----10-12---12-10-12---12-10-12h14p12-10-\-|
D|-/10----------------------------------------|
A|--------------------------------------------|
E|--------------------------------------------|

e|------------------------------------------|
B|------------------------------------------|
G|-----10-12---12-10-12---12-10-12h14p12-10-|
D|-/10--------------------------------------|
A|------------------------------------------|
E|------------------------------------------|

e|--------------------------------------|
B|--------------------------------------|
G|--------------------------------------|
D|-15-14-14-12-12-10--15-14-14-12-12-10-|
A|--------------------------------------|
E|-13/12-12/10-10/8---13/12-12/10-10/8--|

e|--------------------------------------|
B|--------------------------------10----|
G|--------------------------------10----|
D|-----------------------------10----12-|
A|----------------------10--12----------|
E|-10-10-10-10-10-10-13-----------------|

e|-----------12--------------------------------------------------------------|
B|--------12----13-13-13p10----------------------10--------------------------|
G|-12b14--------------------12p10h12-12p10-------10--------------------------|
D|-----------------------------------------12p10----12-----------------------|
A|---------------------------------------------------------------------------|
E|---------------------------------------------------------------------------|


Order:
Intro
Verse
Chorus
Verse
Chorus
Solo
Verse
Chorus

There ya go, enjoy!

| /  slide up
| \  slide down
| h  hammer-on
| p  pull-off
| ~  vibrato
| +  harmonic
| x  Mute note
===============================================================================
Related for Breaking Inside tab