Song name
# A B C D E F G H I J K L M N O P Q R S T U V W X Y Z

Shinedown - Junkies For Fame tab

Shinedown - Junkies for fame intro


E||-------|------------------------------|--------------------------|
B||-------|------------------------------|--------------------------|
G||-------|------------------------------|--------------------------|
D||-------|--------0-------------10------|--------8-----------5-----|
A||-------|-----0-----0------10------10--|-----8-----8-----5-----5--|
D||-------|--0-----------10--------------|--8-----------5-----------|


  E  E  E  E   E   E   E   E     E  E  E  E  E  S S S S S S  
------------------------------|-----------------------------|
------------------------------|-----------------------------|
------------------------------|-----------------------------|
--------0-------------10------|--------8-----5--x-x-5-5-5-5-|
-----0-----0------10------10--|-----8-----8--5--x-x-5-5-5-5-|
--0-----------10--------------|--8-----------5--x-x-5-5-5-5-|


  E  E  E  E  E  E  E  E     E  E  E  E  E  E  E  E   
--------------------------|--------------------------|
--------------------------|--------------------------|
--------------------------|--------------------------|
--7--7--7--7--5--5--5--5--|--8--8--8--8--5--5--5--5--|
--5--5--5--5--3--3--3--3--|--8--8--8--8--5--5--5--5--|
--------------------------|--8--8--8--8--5--5--5--5--|


  E  E  E  E  E  E  E  E     E  E  E  E  E  E  E  E   
--------------------------|--------------------------|
--------------------------|--------------------------|
--------------------------|--------------------------|
--7--7--7--7--5--5--5--5--|--8--8--8--8--5--5--5--5--|
--5--5--5--5--3--3--3--3--|--8--8--8--8--5--5--5--5--|
--------------------------|--8--8--8--8--5--5--5--5--|


  E   E  S  E  Q    Q    S    W                    W                 
---------------------------|--------------------|-------------------|
---------------------------|--------------------|-------------------|
---------------------------|--------------------|-------------------|
---------------------------|--------------------|-------------------|
--5h-----6p-5--------------|---~----------------|-------------------|
---------------------------|--------------------|-------------------|


  H        E  E  E  E       E  E  E  E  E  E  E  E   
-----------------------||---------------------------|
-----------------------||---------------------------|
-----------------------||*--------------------------|
--------------5--5--5--||*--7--7--7--7--5--5--5--5--|
-----------5--5--5--5--||---5--5--5--5--3--3--3--3--|
-----------5--5--5--5--||---------------------------|


                         Pre-Chorus PM PM PM PM PM PM  
  E  E  E  E  E  E  E  E       Q    E  E  E  E  E  E   
---------------------------||-------------------------|
---------------------------||-------------------------|
--------------------------*||-------------------------|
--8--8--8--8--5--5--5--5--*||--0----------------------|
--8--8--8--8--5--5--5--5---||--0----0--0--0--0--0--0--|
--8--8--8--8--5--5--5--5---||--0----0--0--0--0--0--0--|


  PM PM PM PM PM    PM            PM PM PM PM PM PM    PM PM PM PM PM    PM     
  E  E  E  E  E  E  E  E     Q    E  E  E  E  E  E     E  E  E  E  E  E  E  E   
--------------------------|-------------------------|--------------------------|
--------------------------|-------------------------|--------------------------|
--------------------------|-------------------------|--------------------------|
-----------------0-----0--|--5----------------------|-----------------5-----5--|
--0--0--0--0--0--0--0--0--|--5----5--5--5--5--5--5--|--5--5--5--5--5--5--5--5--|
--0--0--0--0--0--0--0--0--|--5----5--5--5--5--5--5--|--5--5--5--5--5--5--5--5--|


       PM PM PM PM PM PM    PM PM PM PM PM PM PM PM    PM PM PM PM              
  Q    E  E  E  E  E  E     E  E  E  E  E  E  E  E     E  E  E  E  E  E  E  E   
-------------------------|--------------------------|--------------------------|
-------------------------|--------------------------|--------------------------|
-------------------------|--------------------------|--------------------------|
--8----------------------|--------------------------|--------------------------|
--8----8--8--8--8--8--8--|--8--8--8--8--8--8--8--8--|--6--6--6--6--6--6--6--6--|
--8----8--8--8--8--8--8--|--8--8--8--8--8--8--8--8--|--6--6--6--6--6--6--6--6--|


  E  E  E  E  E  E  E  E    
--------------------------||
--------------------------||
--------------------------||
--------------------------||
--4--4--4--4--3--3--3--3--||
--4--4--4--4--3--3--3--3--||


This is my first real tab,I saw that this one was requested and I wanted a tab also,So I 
i'd give it a shot.This is the intro and prechorus...I'll work out more of it soon.

Duration Legend
---------------
W - whole
H - half
Q - quarter
E - 8th
S - 16th
T - 32nd
X - 64th
. - note dotted
|-n-|  - n-tuplets
Tap to rate this tab
# A B C D E F G H I J K L M N O P Q R S T U V W X Y Z