Song name
# A B C D E F G H I J K L M N O P Q R S T U V W X Y Z

Shinedown - All I Ever Wanted tab

Help us improve GuitareTab! Take a short survey!
==============================                  =========================   
All I Ever Wanted---Shinedown-------------------Transfered by Asa Gaston
==============================                  =========================

h=slide up b=bend the string
(beginning) (while the other guitar goes)
e----------------] e--3h5---------]
b----------------] b-----5b--1-1h3]
g----------------] g--------------]
d----2-3-2--2-2--] d--------------]
a---3-3---3--3-3-] a--------------]
E--0-------1--1-1] E--------------]
(chorus)
D Gmaj C D Gmaj
e--2----3----0----2----3-----]------------]
b--3----3----1----3----3-----]------------]
g--2----0----0----2----0-----]------------]
d-------0----2---------0----3]--5--5--3--2]
a-------2----3---------2----3]--5--5--3--2]
E-------3--------------3----1]--3--3--1--0]
Related for All I Ever Wanted tab