Song name
# A B C D E F G H I J K L M N O P Q R S T U V W X Y Z

Shinedown - Save Me tab

Help us improve GuitareTab! Take a short survey!
=====================================================================================================================
Title: *Save Me* (3:33)
Artist: Shinedown
Album: Us and Them
=====================================================================================================================
Written by Brent Smith and Tony Battaglia
Produced by 'Driven By Music' and 'Big Antt Music, BMI (ASCAP)'
=====================================================================================================================
Label: Atlantic Records
Year: 2005
=====================================================================================================================
Track: -3-
=====================================================================================================================
Tabbed by Asa Gaston
=====================================================================================================================
Tuning: All guitars in standard ( E-A-D-G-B-E )
=====================================================================================================================
 
---------------------------------------------------------------------------------------------------------------------
Guitar 1 -{ E-A-D-G-B-E }- Jasin Todd
---------------------------------------------------------------------------------------------------------------------
Guitar 2 -{ E-A-D-G-B-E }- Jasin Todd
---------------------------------------------------------------------------------------------------------------------
Guitar 3 -{ E-A-D-G-B-E }- Jasin Todd
---------------------------------------------------------------------------------------------------------------------
Guitar 4 -{ E-A-D-G-B-E }- Percussion
---------------------------------------------------------------------------------------------------------------------
Guitar 5 -{ E-A-D-G-B-E }- Percussion
---------------------------------------------------------------------------------------------------------------------
Guitar 6 -{ E-A-D-G-B-E }- Percussion
---------------------------------------------------------------------------------------------------------------------
Guitar 7 -{ E-A-D-G-B-E }- Jasin Todd
---------------------------------------------------------------------------------------------------------------------
Guitar 8 -{ E-A-D-G-B-E }- Jasin Todd
---------------------------------------------------------------------------------------------------------------------

=====================================================================================================================
INTRO -[Moderate Rock] (n)=116
=====================================================================================================================
0:00-

                       B5*                           D5*             A5*                           G*      F#*     
                       Gtr.1 (slight dist.)
 4/4 (drums and bass)  
 |--------------------|-----------------------------|---------------|-----------------------------|--------------|
T|--------------------|-----------------------------|---------------|-----------------------------|--------------|
A|--------------------|---------6b(1/2)r(6)---------|---------------|---------6b(1/2)r(6)---------|--------------|
B|--------------------|-----------------------7-----|---------------|-----------------------7-----|-9\\\\\\\8~~~~|
 |--------------------|-----------------------------|---------------|-----------------------------|--------------|
 |--------------------|-----------------------------|---------------|-----------------------------|--------------|
                                                                                                

=====================================================================================================================
VERSE 1
=====================================================================================================================
0:16-

     B5*                Bm/D*                         A5*                   G*          F#*

Gtr.1
|----------------------|-----------------------------|---------------------|-----------------------||||||||||||||/
|----------------------|-----------------------------|---------------------|-----------------------||||||||||||||\
|----------------------|---------6b(1/2)r(6)---------|---------------------|-----------------------||||||||||||||/
|----------------------|-----------------------7-----|---------------------|-9\\\\\\\\\\\8~~~~~~~~~||||||||||||||\
|----------------------|-----------------------------|---------------------|-----------------------||||||||||||||/
|----------------------|-----------------------------|---------------------|-----------------------||||||||||||||\
Gtr.2 (slight dist.) 
|----------------------|-----------------------------|---------------------|-----------------------||||||||||||||\
|----------------------|-----------------------------|---------------------|-----------------------||||||||||||||/
|------4---------------|-----------------------------|---------------------|-----------------------||||||||||||||\
|------4---------------|-----------------------------|---------------------|-----------------------||||||||||||||/
|------2---------------|-----------------------------|---------------------|-----------------------||||||||||||||\
|----------------------|-----------------------------|---------------------|-----------------------||||||||||||||/



     B5*                Bm/D*                         A5*                    G*        F#*

Gtr.1
|----------------------|-----------------------------|---------------------|-----------------------||||||||||||||/
|----------------------|-----------------------------|---------------------|-----------------------||||||||||||||\
|----------------------|---------6b(1/2)r(6)---------|---------------------|-4----------3----------||||||||||||||/
|----------------------|-----------------------7-----|---------------------|-5----------4----------||||||||||||||\
|----------------------|-----------------------------|---------------------|-----------------------||||||||||||||/
|----------------------|-----------------------------|---------------------|-----------------------||||||||||||||\
Gtr.2 
|----------------------|-----------------------------|---------------------|-----------------------||||||||||||||\
|----------------------|-----------------------------|---------------------|-----------------------||||||||||||||/
|------4---------------|-----------------------------|---------------------|-----------------------||||||||||||||\
|------4---------------|-----------------------------|---------------------|-----------------------||||||||||||||/
|------2---------------|-----------------------------|---------------------|-----------------------||||||||||||||\
|----------------------|-----------------------------|---------------------|-----------------------||||||||||||||/


         B5*                   Dsus2*                     Asus2*                 G6*      F#11* 

Gtr.1    Harm - - - - - - - - - ]                           Harm - - - - - - - - - ]
|---------14--10------12-----|---------------------|-------14-----10-----12-----|--------------------------|||||||/
|----------------------------|---------------------|----------------------------|--------------------------|||||||\
|----------------------------|---------------------|----------------------------|--------------------------|||||||/
|----------------------------|---------------------|----------------------------|--------------------------|||||||\
|----------------------------|---------------------|----------------------------|--------------------------|||||||/
|----------------------------|---------------------|----------------------------|--------------------------|||||||\
Gtr.2
|----------------------------|----------0----------|----------------------------|-0--------0---------------|||||||\
|-----------------0----------|---------------------|-------------------0--------|-0--------0---------------|||||||/
|--------------4-------------|-------7-------------|----------------------------|-4--------3---------------|||||||\
|-----------4----------------|----7----------------|---------------7------------|-5--------4---------------|||||||/
|--------2-------------------|-5-------------------|-----------7----------------|-5--------4---------------|||||||\
|----------------------------|---------------------|-------5--------------------|-3--------2---------------|||||||/


        B5*                      D5*                      C#5*                     Bm*         F#/A*

Gtr.1    Harm - - - - - - - - - - ]
|-------14----10----12---------|------------------------|------------------------|------------------------||||||||/
|------------------------------|------------------------|------------------------|------------------------||||||||\
|------------------------------|------------------------|------------------------|------------------------||||||||/
|------------------------------|------------------------|------------------------|------------------------||||||||\
|------------------------------|------------------------|------------------------|------------------------||||||||/
|------------------------------|------------------------|------------------------|------------------------||||||||\
Gtr.2
|------------------------------|------------------------|------------------------|------------------------||||||||\
|------------------------------|------------------------|------------------------|------------------------||||||||/
|-------4--4--4--4--4--4--4--4-|-7--7--7--7--7--7--7--7-|-6--6--6--6--6--6--6--6-|-4--4--4--4--3--3--3--3-||||||||\
|-------x--x--x--x--x--x--x--x-|-x--x--x--x--x--x--x--x-|-x--x--x--x--x--x--x--x-|-x--x--x--x--x--x--x--x-||||||||/
|-------2--2--2--2--2--2--2--2-|-5--5--5--5--5--5--5--5-|-4--4--4--4--4--4--4--4-|-2--2--2--2--1--1--1--1-||||||||\
|------------------------------|------------------------|------------------------|------------------------||||||||/


=====================================================================================================================
CHORUS
=====================================================================================================================
0:50-

   B5*                        F#5*                       A5*                        G5*         F#5* 

Gtr.3
|--------------------------|--------------------------|--------------------------|--------------------------||||||/
|--------------------------|--------------------------|--------------------------|--------------------------||||||\
|--------------------------|--------------------------|--------------------------|--------------------------||||||/
|--9--9--9--9--9--9--9--9--|--4--4--4--4--4--4--4--4--|--7--7--7--7--7--7--7--7--|--5--5--5--5--4--4--4--4--||||||\
|--------------------------|--------------------------|--------------------------|--------------------------||||||/
|--------------------------|--------------------------|--------------------------|--------------------------||||||\
Gtr.4
|--------------------------|--------------------------|--------------------------|--------------------------||||||\
|--------------------------|--------------------------|--------------------------|--------------------------||||||/
|--4--4--4--4--4--4--4--4--|--------------------------|--------------------------|--------------------------||||||\
|--4--4--4--4--4--4--4--4--|--4--4--4--4--4--4--4--4--|--7--7--7--7--7--7--7--7--|--5--5--5--5--4--4--4--4--||||||/
|--2--2--2--2--2--2--2--2--|--4--4--4--4--4--4--4--4--|--7--7--7--7--7--7--7--7--|--5--5--5--5--4--4--4--4--||||||\
|--------------------------|--2--2--2--2--2--2--2--2--|--5--5--5--5--5--5--5--5--|--3--3--3--3--2--2--2--2--||||||/


   B5*                        F#5*                       A5                         G5*         F#5* 

Gtr.3
|--------------------------|--------------------------|--------------------------|--------------------------||||||/
|--------------------------|--------------------------|--------------------------|--------------------------||||||\
|--------------------------|--------------------------|--------------------------|--------------------------||||||/
|--9--9--9--9--9--9--9--9--|--4--4--4--4--4--4--4--4--|--7--7--7--7--7--7--7--7--|--5--5--5--5--4--4--4--4--||||||\
|--------------------------|--------------------------|--------------------------|--------------------------||||||/
|--------------------------|--------------------------|--------------------------|--------------------------||||||\
Gtr.4
|--------------------------|--------------------------|--------------------------|--------------------------||||||\
|--------------------------|--------------------------|--------------------------|--------------------------||||||/
|--4--4--4--4--4--4--4--4--|--------------------------|--------------------------|--------------------------||||||\
|--4--4--4--4--4--4--4--4--|--4--4--4--4--4--4--4--4--|--7--7--7--7--7--7--7--7--|--5--5--5--5--4--4--4--4--||||||/
|--2--2--2--2--2--2--2--2--|--4--4--4--4--4--4--4--4--|--7--7--7--7--7--7--7--7--|--5--5--5--5--4--4--4--4--||||||\
|--------------------------|--2--2--2--2--2--2--2--2--|--5--5--5--5--5--5--5--5--|--3--3--3--3--2--2--2--2--||||||/


=====================================================================================================================
INTERLUDE
=====================================================================================================================
1:06-

  B5*                           D5*             A5*                           G*      F#*     
                      
Gtr.1  
|-----------------------------|---------------|-----------------------------|--------------|||||||||||||||||||||||/
|-----------------------------|---------------|-----------------------------|--------------|||||||||||||||||||||||\
|---------6b(1/2)r(6)---------|---------------|---------6b(1/2)r(6)---------|-4\\\\\\\3~~~~|||||||||||||||||||||||/
|-----------------------7-----|---------------|-----------------------7-----|--------------|||||||||||||||||||||||\
|-----------------------------|---------------|-----------------------------|--------------|||||||||||||||||||||||/
|-----------------------------|---------------|-----------------------------|--------------|||||||||||||||||||||||\
Gtr.2
|-----------------------------|---------------|-----------------------------|-0-------0----|||||||||||||||||||||||\
|-----------------------------|---------------|-----------------------------|-0-------0----|||||||||||||||||||||||/
|-----------------------------|---------------|-----------------------------|-4-------3----|||||||||||||||||||||||\
|-----------------------------|---------------|-----------------------------|-5-------4----|||||||||||||||||||||||/
|-----------------------------|---------------|-----------------------------|-5-------4----|||||||||||||||||||||||\
|-----------------------------|---------------|-----------------------------|-3-------2----|||||||||||||||||||||||/
Gtr.4
|-----------------------------|---------------|-----------------------------|--------------|||||||||||||||||||||||\
|-----------------------------|---------------|-----------------------------|--------------|||||||||||||||||||||||/
|---4-------------------------|---------------|-----------------------------|--------------|||||||||||||||||||||||\
|---4-------------------------|---------------|-----------------------------|--------------|||||||||||||||||||||||/
|---2-------------------------|---------------|-4---------------------------|-5--------4---|||||||||||||||||||||||\
|-----------------------------|---------------|-----------------------------|--------------|||||||||||||||||||||||/


=====================================================================================================================
VERSE 2
=====================================================================================================================
1:14-

     Bm*        Bm/D*                         A5*                   G*          F#*

Gtr.1
|--------------|-----------------------------|---------------------|-----------------------|-7--------||||||||||||/
|--------------|-----------------------------|---------------------|-----------------------|-7--------||||||||||||\
|--------------|---------6b(1/2)r(6)---------|---------------------|-----------------------|-7--------||||||||||||/
|--------------|-----------------------7-----|---------------------|-9\\\\\\\\\\\8~~~~~~~~~|-9--------||||||||||||\
|--------------|-----------------------------|---------------------|-----------------------|-9--------||||||||||||/
|--------------|-----------------------------|---------------------|-----------------------|-7--------||||||||||||\
Gtr.2
|-----7--------|-----------------------------|---------------------|-----------------------|----------||||||||||||\
|-----7--------|-----------------------------|---------------------|-----------------------|----------||||||||||||/
|-----7--------|-----------------------------|---------------------|-----------------------|----------||||||||||||\
|-----9--------|-----------------------------|---------------------|-----------------------|----------||||||||||||/
|-----9--------|-----------------------------|---------------------|-----------------------|----------||||||||||||\
|-----7--------|-----------------------------|---------------------|-----------------------|----------||||||||||||/
Gtr.4
|--------------|-----------------------------|---------------------|-----------------------|----------||||||||||||\
|--------------|-----------------------------|---------------------|-----------------------|----------||||||||||||/
|--------------|-----------------------------|---------------------|-----------------------|----------||||||||||||\
|--------------|-----------------------------|---------------------|-----------------------|----------||||||||||||/
|-----2--------|-----------------------------|---------------------|-----------------------|----------||||||||||||\
|--------------|-----------------------------|---------------------|-----------------------|----------||||||||||||/


 Bm/D*                         A5*                   G*          F#*

Gtr.1
|-----------------------------|---------------------|-----------------------||||||||||||||||||||||||||||||||||||||/
|-----------------------------|---------------------|-----------------------||||||||||||||||||||||||||||||||||||||\
|---------6b(1/2)r(6)---------|---------------------|-----------------------||||||||||||||||||||||||||||||||||||||/
|-----------------------7-----|---------------------|-9\\\\\\\\\\\8~~~~~~~~~||||||||||||||||||||||||||||||||||||||\
|-----------------------------|---------------------|-----------------------||||||||||||||||||||||||||||||||||||||/
|-----------------------------|---------------------|-----------------------||||||||||||||||||||||||||||||||||||||\
Gtr.2  
|-----------------------------|---------------------|-----------------------||||||||||||||||||||||||||||||||||||||\
|-----------------------------|---------------------|-----------------------||||||||||||||||||||||||||||||||||||||/
|-----------------------------|---------------------|-----------------------||||||||||||||||||||||||||||||||||||||\
|-----------------------------|---------------------|-----------------------||||||||||||||||||||||||||||||||||||||/
|-----------------------------|---------------------|-----------------------||||||||||||||||||||||||||||||||||||||\
|-----------------------------|---------------------|-----------------------||||||||||||||||||||||||||||||||||||||/




Gtr.1    Harm - - - - - - - - - - ]
|-------14----10----12---------|------------------------|------------------------|------------------------||||||||/
|------------------------------|------------------------|------------------------|------------------------||||||||\
|------------------------------|------------------------|------------------------|------------------------||||||||/
|------------------------------|------------------------|------------------------|------------------------||||||||\
|------------------------------|------------------------|------------------------|------------------------||||||||/
|------------------------------|------------------------|------------------------|------------------------||||||||\
Gtr.2
|------------------------------|------------------------|------------------------|------------------------||||||||\
|------------------------------|------------------------|------------------------|------------------------||||||||/
|-------4--4--4--4--4--4--4--4-|-7--7--7--7--7--7--7--7-|------------------------|------------------------||||||||\
|-------4--4--4--4--4--4--4--4-|-7--7--7--7--7--7--7--7-|-7--7--7--7--7--7--7--7-|-5--5--5--5--4--4--4--4-||||||||/
|-------2--2--2--2--2--2--2--2-|-5--5--5--5--5--5--5--5-|-7--7--7--7--7--7--7--7-|-5--5--5--5--4--4--4--4-||||||||\
|------------------------------|------------------------|-5--5--5--5--5--5--5--5-|-3--3--3--3--2--2--2--2-||||||||/




Gtr.1    Harm - - - - - - - - - - ]
|-------14----10----12---------|------------------------|------------------------|------------------------||||||||/
|------------------------------|------------------------|------------------------|------------------------||||||||\
|------------------------------|------------------------|------------------------|------------------------||||||||/
|------------------------------|------------------------|------------------------|------------------------||||||||\
|------------------------------|------------------------|------------------------|------------------------||||||||/
|------------------------------|------------------------|------------------------|------------------------||||||||\
Gtr.2
|------------------------------|------------------------|------------------------|------------------------||||||||\
|------------------------------|------------------------|------------------------|------------------------||||||||/
|-------4--4--4--4--4--4--4--4-|-7--7--7--7--7--7--7--7-|-6--6--6--6--6--6--6--6-|-4--4--4--4--3--3--3--3-||||||||\
|-------x--x--x--x--x--x--x--x-|-x--x--x--x--x--x--x--x-|-x--x--x--x--x--x--x--x-|-x--x--x--x--x--x--x--x-||||||||/
|-------2--2--2--2--2--2--2--2-|-5--5--5--5--5--5--5--5-|-4--4--4--4--4--4--4--4-|-2--2--2--2--1--1--1--1-||||||||\
|------------------------------|------------------------|------------------------|------------------------||||||||/
Gtr.5 (slight dist.)
|------------------------------|------------------------|------------------------|------------------------|||||||/
|------------------------------|------------------------|------------------------|------------------------|||||||\
|-------11-11-11-11-11-11-11-11|-14-14-14-14-14-14-14-14|-14-14-14-14-14-14-14-14|-12-12-12-12-11-11-11-11|||||||/
|-------x--x--x--x--x--x--x--x-|-x--x--x--x--x--x--x--x-|-x--x--x--x--x--x--x--x-|-x--x--x--x--x--x--x--x-|||||||\
|-------9--9--9--9--9--9--9--9-|-12-12-12-12-12-12-12-12|-12-12-12-12-12-12-12-12|-10-10-10-10-9--9--9--9-|||||||/
|------------------------------|------------------------|------------------------|------------------------|||||||\
Gtr.6 (slight dist.)
|------------------------------|------------------------|------------------------|------------------------|||||||\
|------------------------------|------------------------|------------------------|------------------------|||||||/
|-------11-11-11-11-11-11-11-11|-11-11-11-11-11-11-11-11|-9--9--9--9--9--9--9--9-|-7--7--7--7--6--6--6--6-|||||||\
|-------x--x--x--x--x--x--x--x-|-x--x--x--x--x--x--x--x-|-x--x--x--x--x--x--x--x-|-x--x--x--x--x--x--x--x-|||||||/
|-------9--9--9--9--9--9--9--9-|-9--9--9--9--9--9--9--9-|-7--7--7--7--7--7--7--7-|-5--5--5--5--4--4--4--4-|||||||\
|------------------------------|------------------------|------------------------|------------------------|||||||/


=====================================================================================================================
CHORUS
=====================================================================================================================
1:47-

   B5*                        F#5*                       A5*                        G5*         F#5* 

Gtr.3
|--------------------------|--------------------------|--------------------------|--------------------------||||||/
|--------------------------|--------------------------|--------------------------|--------------------------||||||\
|--------------------------|--------------------------|--------------------------|--------------------------||||||/
|--9--9--9--9--9--9--9--9--|--4--4--4--4--4--4--4--4--|--7--7--7--7--7--7--7--7--|--5--5--5--5--4--4--4--4--||||||\
|--------------------------|--------------------------|--------------------------|--------------------------||||||/
|--------------------------|--------------------------|--------------------------|--------------------------||||||\
Gtr.4
|--------------------------|--------------------------|--------------------------|--------------------------||||||\
|--------------------------|--------------------------|--------------------------|--------------------------||||||/
|--4--4--4--4--4--4--4--4--|--------------------------|--------------------------|--------------------------||||||\
|--4--4--4--4--4--4--4--4--|--4--4--4--4--4--4--4--4--|--7--7--7--7--7--7--7--7--|--5--5--5--5--4--4--4--4--||||||/
|--2--2--2--2--2--2--2--2--|--4--4--4--4--4--4--4--4--|--7--7--7--7--7--7--7--7--|--5--5--5--5--4--4--4--4--||||||\
|--------------------------|--2--2--2--2--2--2--2--2--|--5--5--5--5--5--5--5--5--|--3--3--3--3--2--2--2--2--||||||/


   B5*                        F#5*                       A5                         G5*         F#5* 

Gtr.3
|--------------------------|--------------------------|--------------------------|--------------------------||||||/
|--------------------------|--------------------------|--------------------------|--------------------------||||||\
|--------------------------|--------------------------|--------------------------|--------------------------||||||/
|--9--9--9--9--9--9--9--9--|--4--4--4--4--4--4--4--4--|--7--7--7--7--7--7--7--7--|--5--5--5--5--4--4--4--4--||||||\
|--------------------------|--------------------------|--------------------------|--------------------------||||||/
|--------------------------|--------------------------|--------------------------|--------------------------||||||\
Gtr.4
|--------------------------|--------------------------|--------------------------|--------------------------||||||\
|--------------------------|--------------------------|--------------------------|--------------------------||||||/
|--4--4--4--4--4--4--4--4--|--------------------------|--------------------------|--------------------------||||||\
|--4--4--4--4--4--4--4--4--|--4--4--4--4--4--4--4--4--|--7--7--7--7--7--7--7--7--|--5--5--5--5--4--4--4--4--||||||/
|--2--2--2--2--2--2--2--2--|--4--4--4--4--4--4--4--4--|--7--7--7--7--7--7--7--7--|--5--5--5--5--4--4--4--4--||||||\
|--------------------------|--2--2--2--2--2--2--2--2--|--5--5--5--5--5--5--5--5--|--3--3--3--3--2--2--2--2--||||||/


=====================================================================================================================
Guitar Solo
=====================================================================================================================
2:04-



Gtr.7 (dist.)
|---------------------------------|---------------------------------|--------------------------------------|||||||/
|---------------------------------|---------------------------------|--------------------------------------|||||||\
|------7-(7)b(1/4)----------------|------7-(7)b(1/4)----------------|------7-(7)b(1/4)--------7-9-9b(full)-|||||||/
|-/9----------------9~~~~~~~~(9)\-|-/9----------------9~~~~~~~~(9)\-|-/9----------------9------------------|||||||\
|---------------------------------|---------------------------------|--------------------------------------|||||||/
|---------------------------------|---------------------------------|--------------------------------------|||||||\




Gtr.7
|--------------------------|-17---------------17--------------|-17------------------17--17~~~~~~~~(17)\--------------|
|--------------------------|-17b(full)-(17)r--15b(full)-(15)r-|-17b(full)-(17)r-p15-17--17~~~~~~~~(17)\------------7-|
|-----(9)--9r-----7--7~~~~~|----------------------------------|-----------------------------------------9b(full)-----|
|--------------------------|----------------------------------|------------------------------------------------------|
|--------------------------|----------------------------------|------------------------------------------------------|
|--------------------------|----------------------------------|------------------------------------------------------|




Gtr.7
|-----7---------------------------------7-10p7-10/12~~|~~-10h12p10----10-----------------------------||||||||||||||\
|-------10p7----7---------------------7---------------|------------12--------------------------------||||||||||||||/
|------------10---10p9p7-9b(full)---------------------|-------------------12/9p7-9(1/2)-9p7----------||||||||||||||\
|-----------------------------------------------------|-------------------------------------9p7-9~~~~||||||||||||||/
|-----------------------------------------------------|----------------------------------------------||||||||||||||\
|-----------------------------------------------------|----------------------------------------------||||||||||||||/


=====================================================================================================================
BRIDGE
=====================================================================================================================
2:21-

      B5*                     D5*                      A5*                      G5*         F#5*

Gtr.3
|----------------------------|------------------------|------------------------|------------------------|||||||||||/
|----------------------------|------------------------|------------------------|------------------------|||||||||||\
|-----4--4--4--4--4--4--4--4-|-7--7--7--7--7--7--7--7-|------------------------|------------------------|||||||||||/
|-----4--4--4--4--4--4--4--4-|-7--7--7--7--7--7--7--7-|-7--7--7--7--7--7--7--7-|-5--5--5--5--4--4--4--4-|||||||||||\
|-----2--2--2--2--2--2--2--2-|-5--5--5--5--5--5--5--5-|-7--7--7--7--7--7--7--7-|-5--5--5--5--4--4--4--4-|||||||||||/
|----------------------------|------------------------|-5--5--5--5--5--5--5--5-|-3--3--3--3--2--2--2--2-|||||||||||\
Gtr.4
|----------------------------|------------------------|------------------------|------------------------|||||||||||\
|----------------------------|------------------------|------------------------|------------------------|||||||||||/
|-----4--4--4--4--4--4--4--4-|-7--7--7--7--7--7--7--7-|------------------------|------------------------|||||||||||\
|-----4--4--4--4--4--4--4--4-|-7--7--7--7--7--7--7--7-|-7--7--7--7--7--7--7--7-|-5--5--5--5--4--4--4--4-|||||||||||/
|-----2--2--2--2--2--2--2--2-|-5--5--5--5--5--5--5--5-|-7--7--7--7--7--7--7--7-|-5--5--5--5--4--4--4--4-|||||||||||\
|----------------------------|------------------------|-5--5--5--5--5--5--5--5-|-3--3--3--3--2--2--2--2-|||||||||||/
Gtr.8
|-----7-----------------7----|-9-----------------9----|-9-----------------9----|-7-----------6----------|||||||||||/
|--------------7-------------|----------10------------|----------10------------|-8-----------7----------|||||||||||\
|----------------------------|------------------------|------------------------|-7-----------6----------|||||||||||/
|-----9----------------------|------------------------|------------------------|------------------------|||||||||||\
|----------------------------|------------------------|------------------------|------------------------|||||||||||/
|----------------------------|------------------------|------------------------|------------------------|||||||||||\


      B5*                     D5*                      A5*                      G5*         F#5*

Gtr.3
|----------------------------|------------------------|------------------------|------------------------|||||||||||/
|----------------------------|------------------------|------------------------|------------------------|||||||||||\
|-----4--4--4--4--4--4--4--4-|-7--7--7--7--7--7--7--7-|------------------------|------------------------|||||||||||/
|-----4--4--4--4--4--4--4--4-|-7--7--7--7--7--7--7--7-|-7--7--7--7--7--7--7--7-|-5--5--5--5--4--4--4--4-|||||||||||\
|-----2--2--2--2--2--2--2--2-|-5--5--5--5--5--5--5--5-|-7--7--7--7--7--7--7--7-|-5--5--5--5--4--4--4--4-|||||||||||/
|----------------------------|------------------------|-5--5--5--5--5--5--5--5-|-3--3--3--3--2--2--2--2-|||||||||||\
Gtr.4
|----------------------------|------------------------|------------------------|------------------------|||||||||||\
|----------------------------|------------------------|------------------------|------------------------|||||||||||/
|-----4--4--4--4--4--4--4--4-|-7--7--7--7--7--7--7--7-|------------------------|------------------------|||||||||||\
|-----4--4--4--4--4--4--4--4-|-7--7--7--7--7--7--7--7-|-7--7--7--7--7--7--7--7-|-5--5--5--5--4--4--4--4-|||||||||||/
|-----2--2--2--2--2--2--2--2-|-5--5--5--5--5--5--5--5-|-7--7--7--7--7--7--7--7-|-5--5--5--5--4--4--4--4-|||||||||||\
|----------------------------|------------------------|-5--5--5--5--5--5--5--5-|-3--3--3--3--2--2--2--2-|||||||||||/
Gtr.8
|-----7-----------------7----|-9-----------------9----|-9-----------------9----|-7-----------6----------|||||||||||/
|--------------7-------------|----------10------------|----------10------------|-8-----------7----------|||||||||||\
|----------------------------|------------------------|------------------------|-7-----------6----------|||||||||||/
|-----9----------------------|------------------------|------------------------|------------------------|||||||||||\
|----------------------------|------------------------|------------------------|------------------------|||||||||||/
|----------------------------|------------------------|------------------------|------------------------|||||||||||\


      B5*                     D5*                      A5*                      G5*         F#5*

Gtr.3
|----------------------------|------------------------|------------------------|------------------------|||||||||||/
|----------------------------|------------------------|------------------------|------------------------|||||||||||\
|-----4--4--4--4--4--4--4--4-|-7--7--7--7--7--7--7--7-|------------------------|------------------------|||||||||||/
|-----4--4--4--4--4--4--4--4-|-7--7--7--7--7--7--7--7-|-7--7--7--7--7--7--7--7-|-5--5--5--5--4--4--4--4-|||||||||||\
|-----2--2--2--2--2--2--2--2-|-5--5--5--5--5--5--5--5-|-7--7--7--7--7--7--7--7-|-5--5--5--5--4--4--4--4-|||||||||||/
|----------------------------|------------------------|-5--5--5--5--5--5--5--5-|-3--3--3--3--2--2--2--2-|||||||||||\
Gtr.4
|----------------------------|------------------------|------------------------|------------------------|||||||||||\
|----------------------------|------------------------|------------------------|------------------------|||||||||||/
|-----4--4--4--4--4--4--4--4-|-7--7--7--7--7--7--7--7-|------------------------|------------------------|||||||||||\
|-----4--4--4--4--4--4--4--4-|-7--7--7--7--7--7--7--7-|-7--7--7--7--7--7--7--7-|-5--5--5--5--4--4--4--4-|||||||||||/
|-----2--2--2--2--2--2--2--2-|-5--5--5--5--5--5--5--5-|-7--7--7--7--7--7--7--7-|-5--5--5--5--4--4--4--4-|||||||||||\
|----------------------------|------------------------|-5--5--5--5--5--5--5--5-|-3--3--3--3--2--2--2--2-|||||||||||/
Gtr.8
|-----7-----------------7----|-9-----------------9----|-9-----------------9----|-7-----------6----------|||||||||||/
|--------------7-------------|----------10------------|----------10------------|-8-----------7----------|||||||||||\
|----------------------------|------------------------|------------------------|-7-----------6----------|||||||||||/
|-----9----------------------|------------------------|------------------------|------------------------|||||||||||\
|----------------------------|------------------------|------------------------|------------------------|||||||||||/
|----------------------------|------------------------|------------------------|------------------------|||||||||||\


  B5*                   D5*                   A5*                                          G5*                   F#5*

Gtr.3
|---------------------|---------------------|---------------------------------------------|---------------------------------------------|
|---------------------|---------------------|---------------------------------------------|---------------------------------------------|
|-4--4--4--4--4--4--4-|-7--7--7--7--7--7--7-|---------------------------------------------|---------------------------------------------|
|-4--4--4--4--4--4--4-|-7--7--7--7--7--7--7-|-5h7--7--7--7-----5h7--7--7--7-----5h7--7----|-5----5----5----5-----4----4----4----4-------|
|-2--2--2--2--2--2--2-|-5--5--5--5--5--5--5-|-5h7--7--7--7-----5h7--7--7--7-----5h7--5----|-5----5----5----5-----4----4----4----4-------|
|---------------------|---------------------|-5-------5--5-----5----5--5--5-----5----5----|-3----3----3----3-----2----2----2----2-------|
Gtr.4
|---------------------|---------------------|---------------------------------------------|---------------------------------------------|
|---------------------|---------------------|---------------------------------------------|---------------------------------------------|
|-4--4--4--4--4--4--4-|-7--7--7--7--7--7--7-|---------------------------------------------|---------------------------------------------|
|-4--4--4--4--4--4--4-|-7--7--7--7--7--7--7-|-5h7--7--7--7-----5h7--7--7--7-----5h7--7----|-5----5----5----5-----4----4----4----4-------|
|-2--2--2--2--2--2--2-|-5--5--5--5--5--5--5-|-5h7--7--7--7-----5h7--7--7--7-----5h7--5----|-5----5----5----5-----4----4----4----4-------|
|---------------------|---------------------|-5-------5--5-----5----5--5--5-----5----5----|-3----3----3----3-----2----2----2----2-------|
Gtr.7
|---------------------|---------------------|-14---------------14---------------14--------|-14---------------14---------------14--------|
|---------------------|---------------------|-17b(full)--------17b(full)--------17b(full)-|-17b(full)--------17b(full)--------17b(full)-|
|---------------------|---------------------|---------------------------------------------|---------------------------------------------|
|---------------------|---------------------|---------------------------------------------|---------------------------------------------|
|---------------------|---------------------|---------------------------------------------|---------------------------------------------|
|---------------------|---------------------|---------------------------------------------|---------------------------------------------|


=====================================================================================================================
CHORUS
=====================================================================================================================
2:54-

   B5*                        F#5*                       A5*                        G5*         F#5* 

Gtr.3
|--------------------------|--------------------------|--------------------------|--------------------------||||||/
|--------------------------|--------------------------|--------------------------|--------------------------||||||\
|--------------------------|--------------------------|--------------------------|--------------------------||||||/
|--9--9--9--9--9--9--9--9--|--4--4--4--4--4--4--4--4--|--7--7--7--7--7--7--7--7--|--5--5--5--5--4--4--4--4--||||||\
|--------------------------|--------------------------|--------------------------|--------------------------||||||/
|--------------------------|--------------------------|--------------------------|--------------------------||||||\
Gtr.4
|--------------------------|--------------------------|--------------------------|--------------------------||||||\
|--------------------------|--------------------------|--------------------------|--------------------------||||||/
|--4--4--4--4--4--4--4--4--|--------------------------|--------------------------|--------------------------||||||\
|--4--4--4--4--4--4--4--4--|--4--4--4--4--4--4--4--4--|--7--7--7--7--7--7--7--7--|--5--5--5--5--4--4--4--4--||||||/
|--2--2--2--2--2--2--2--2--|--4--4--4--4--4--4--4--4--|--7--7--7--7--7--7--7--7--|--5--5--5--5--4--4--4--4--||||||\
|--------------------------|--2--2--2--2--2--2--2--2--|--5--5--5--5--5--5--5--5--|--3--3--3--3--2--2--2--2--||||||/


   B5*                        F#5*                       A5                         G5*         F#5* 

Gtr.3
|--------------------------|--------------------------|--------------------------|--------------------------||||||/
|--------------------------|--------------------------|--------------------------|--------------------------||||||\
|--------------------------|--------------------------|--------------------------|--------------------------||||||/
|--9--9--9--9--9--9--9--9--|--4--4--4--4--4--4--4--4--|--7--7--7--7--7--7--7--7--|--5--5--5--5--4--4--4--4--||||||\
|--------------------------|--------------------------|--------------------------|--------------------------||||||/
|--------------------------|--------------------------|--------------------------|--------------------------||||||\
Gtr.4
|--------------------------|--------------------------|--------------------------|--------------------------||||||\
|--------------------------|--------------------------|--------------------------|--------------------------||||||/
|--4--4--4--4--4--4--4--4--|--------------------------|--------------------------|--------------------------||||||\
|--4--4--4--4--4--4--4--4--|--4--4--4--4--4--4--4--4--|--7--7--7--7--7--7--7--7--|--5--5--5--5--4--4--4--4--||||||/
|--2--2--2--2--2--2--2--2--|--4--4--4--4--4--4--4--4--|--7--7--7--7--7--7--7--7--|--5--5--5--5--4--4--4--4--||||||\
|--------------------------|--2--2--2--2--2--2--2--2--|--5--5--5--5--5--5--5--5--|--3--3--3--3--2--2--2--2--||||||/


=====================================================================================================================
OUTRO
=====================================================================================================================
3:10-

      B5*                     D5*                      A5*                      G5*         F#5*

Gtr.3
|----------------------------|------------------------|------------------------|------------------------|||||||||||/
|----------------------------|------------------------|------------------------|------------------------|||||||||||\
|-----4--4--4--4--4--4--4--4-|-7--7--7--7--7--7--7--7-|------------------------|------------------------|||||||||||/
|-----4--4--4--4--4--4--4--4-|-7--7--7--7--7--7--7--7-|-7--7--7--7--7--7--7--7-|-5--5--5--5--4--4--4--4-|||||||||||\
|-----2--2--2--2--2--2--2--2-|-5--5--5--5--5--5--5--5-|-7--7--7--7--7--7--7--7-|-5--5--5--5--4--4--4--4-|||||||||||/
|----------------------------|------------------------|-5--5--5--5--5--5--5--5-|-3--3--3--3--2--2--2--2-|||||||||||\
Gtr.4
|----------------------------|------------------------|------------------------|------------------------|||||||||||\
|----------------------------|------------------------|------------------------|------------------------|||||||||||/
|-----4--4--4--4--4--4--4--4-|-7--7--7--7--7--7--7--7-|------------------------|------------------------|||||||||||\
|-----4--4--4--4--4--4--4--4-|-7--7--7--7--7--7--7--7-|-7--7--7--7--7--7--7--7-|-5--5--5--5--4--4--4--4-|||||||||||/
|-----2--2--2--2--2--2--2--2-|-5--5--5--5--5--5--5--5-|-7--7--7--7--7--7--7--7-|-5--5--5--5--4--4--4--4-|||||||||||\
|----------------------------|------------------------|-5--5--5--5--5--5--5--5-|-3--3--3--3--2--2--2--2-|||||||||||/




Gtr.3
|------------------------------|------------------------|------------------------|------------------------|||||||||\
|------------------------------|------------------------|------------------------|------------------------|||||||||/
|-------4--4--4--4--4--4--4--4-|-7--7--7--7--7--7--7--7-|-6--6--6--6--6--6--6--6-|-4--4--4--4--3--3--3--3-|||||||||\
|-------x--x--x--x--x--x--x--x-|-x--x--x--x--x--x--x--x-|-x--x--x--x--x--x--x--x-|-x--x--x--x--x--x--x--x-|||||||||/
|-------2--2--2--2--2--2--2--2-|-5--5--5--5--5--5--5--5-|-4--4--4--4--4--4--4--4-|-2--2--2--2--1--1--1--1-|||||||||\
|------------------------------|------------------------|------------------------|------------------------|||||||||/
Gtr.4
|------------------------------|------------------------|------------------------|------------------------|||||||||\
|------------------------------|------------------------|------------------------|------------------------|||||||||/
|-------4--4--4--4--4--4--4--4-|-7--7--7--7--7--7--7--7-|-6--6--6--6--6--6--6--6-|-4--4--4--4--3--3--3--3-|||||||||\
|-------x--x--x--x--x--x--x--x-|-x--x--x--x--x--x--x--x-|-x--x--x--x--x--x--x--x-|-x--x--x--x--x--x--x--x-|||||||||/
|-------2--2--2--2--2--2--2--2-|-5--5--5--5--5--5--5--5-|-4--4--4--4--4--4--4--4-|-2--2--2--2--1--1--1--1-|||||||||\
|------------------------------|------------------------|------------------------|------------------------|||||||||/
Gtr.5
|------------------------------|------------------------|------------------------|------------------------|||||||||/
|------------------------------|------------------------|------------------------|------------------------|||||||||\
|-------11-11-11-11-11-11-11-11|-14-14-14-14-14-14-14-14|-14-14-14-14-14-14-14-14|-12-12-12-12-11-11-11-11|||||||||/
|-------x--x--x--x--x--x--x--x-|-x--x--x--x--x--x--x--x-|-x--x--x--x--x--x--x--x-|-x--x--x--x--x--x--x--x-|||||||||\
|-------9--9--9--9--9--9--9--9-|-12-12-12-12-12-12-12-12|-12-12-12-12-12-12-12-12|-10-10-10-10-9--9--9--9-|||||||||/
|------------------------------|------------------------|------------------------|------------------------|||||||||\
Gtr.6
|------------------------------|------------------------|------------------------|------------------------|||||||||\
|------------------------------|------------------------|------------------------|------------------------|||||||||/
|-------11-11-11-11-11-11-11-11|-11-11-11-11-11-11-11-11|-9--9--9--9--9--9--9--9-|-7--7--7--7--6--6--6--6-|||||||||\
|-------x--x--x--x--x--x--x--x-|-x--x--x--x--x--x--x--x-|-x--x--x--x--x--x--x--x-|-x--x--x--x--x--x--x--x-|||||||||/
|-------9--9--9--9--9--9--9--9-|-9--9--9--9--9--9--9--9-|-7--7--7--7--7--7--7--7-|-5--5--5--5--4--4--4--4-|||||||||\
|------------------------------|------------------------|------------------------|------------------------|||||||||/




Gtr.3
|-------------------------||
|-------------------------||
|---4--4--4--4--4--4--4---||
|---4--4--4--4--4--4--4---||
|---2--2--2--2--2--2--2---||
|-------------------------||
Gtr.4
|-------------------------||
|-------------------------||
|---4--4--4--4--4--4--4---||
|---4--4--4--4--4--4--4---||
|---2--2--2--2--2--2--2---||
|-------------------------||

*************************************************************************************************************************************
=====================================================================================================================================
|||||||||||||||||||||||||||||||||||||||||||||||||||||||||||||||||||||||||||||||||||||||||||||||||||||||||||||||||||||||||||||||||||||
=====================================================================================================================================
|||||||||||||||||||||||||||||||||||||||||||||||||||||||||||||||||||||||||||||||||||||||||||||||||||||||||||||||||||||||||||||||||||||
=====================================================================================================================================
*************************************************************************************************************************************

*************************************************************************************************************************************
Lyrics-
*************************************************************************************************************************************

VERSE 1: Well, I got a candle, and I've got a spoon. 
         I Live in a hallway with no doors and no rooms.
         And under a windowsill they all were found.
         A touch of concrete within the doorway, without a sound.

CHORUS: Someone save me if you will,
        And take away all these pills.
        And please just save me, if you can,
        From my blashpemy in my wasteland.

VERSE 2: How did I get here, and what went wrong?
         Couldn't handle forgiveness, now I'm far beyond gone.
         And I can hardly remember the look of my own eyes.
         How could I love this? My life's so dishonest, it made me compromise.

CHORUS: Someone save me if you will,
        And take away all these pills.
        And please just save me, if you can,
        From my blashpemy in my wasteland.

BRIDGE: Jump in the water, jump in with me.
        Jump on the altar, lay down with me.
        The hardest question to answer is why, why.

CHORUS: Someone save me if you will,
        And take away all these pills.
        And please just save me, if you can,
        From my blashpemy in my wasteland.

OUTRO: Someone save me, someone save me,
       Somebody save me, somebody save me,
       Please don't erase me.

*************************************************************************************************************************************
Guitar Legend-
*************************************************************************************************************************************

 tacet - Quiet

 h ------------Hammer-On

 p ------------Pull-Off

 b ------------Bend

 pb -----------Pre-Bend

 r ------------Bend Release ( if there is no number after r,
                                                     release immediately )
 / ------------Slide Into

 \ ------------Slide Out Of

 s ------------Legato Slide

 S ------------Shift Slide

 - ------------Natural Harmonic

 [n] ----------Artifitial Harmonic

 n[n] ---------Tapped Harmonic

 ~ ------------Vibrato

 tr -----------Trill

 T ------------Tap

 TR -----------Trem. Picking

 PM -----------Palm Muting

 \n/ ----------Tremolo Bar Dip; n - Amount to Dip

 \n -----------Tremolo Bar Down

 n/ -----------Tremolo Bar Up

 /n\ ----------Tremolo Bar Inverted Dip

 = ------------Hold Bend; Also Acts As Connecting Devise 
                                                For Hammer-Ons/Pull-Offs
 < ------------Volume Swell Louder

 > ------------Volume Swell Softer

 x ------------Muted Slash

 o ------------Single Note Slash


*************************************************************************************************************************************
A Simple 'One Guitar/TEXT' Version
*************************************************************************************************************************************

*INTRO
|--------------------|-----------------------------|---------------|-----------------------------|--------------|
|--------------------|-----------------------------|---------------|-----------------------------|--------------|
|--------------------|---------6b(1/2)r(6)---------|---------------|---------6b(1/2)r(6)---------|--------------|
|--------------------|-----------------------7-----|---------------|-----------------------7-----|-9\\\\\\\8~~~~|
|--------------------|-----------------------------|---------------|-----------------------------|--------------|
|--------------------|-----------------------------|---------------|-----------------------------|--------------| 
*VERSE
|----------------------|-----------------------------|---------------------|-----------------------||||||||||||||||||/
|----------------------|-----------------------------|---------------------|-----------------------||||||||||||||||||\
|------4---------------|---------6b(1/2)r(6)---------|---------------------|-----------------------||||||||||||||||||/
|------4---------------|-----------------------7-----|---------------------|-9\\\\\\\\\\\8~~~~~~~~~||||||||||||||||||\
|------2---------------|-----------------------------|---------------------|-----------------------||||||||||||||||||/
|----------------------|-----------------------------|---------------------|-----------------------||||||||||||||||||/

|----------------------|-----------------------------|---------------------|-----------------------||||||||||||||||||/
|----------------------|-----------------------------|---------------------|-----------------------||||||||||||||||||\
|------4---------------|---------6b(1/2)r(6)---------|---------------------|-4----------3----------||||||||||||||||||/
|------4---------------|-----------------------7-----|---------------------|-5----------4----------||||||||||||||||||\
|------2---------------|-----------------------------|---------------------|-----------------------||||||||||||||||||/
|----------------------|-----------------------------|---------------------|-----------------------||||||||||||||||||/

|----------------------------|----------0----------|----------------------------|-0--------0---------------||||||||||\
|-----------------0----------|---------------------|-------------------0--------|-0--------0---------------||||||||||/
|--------------4-------------|-------7-------------|----------------------------|-4--------3---------------||||||||||\
|-----------4----------------|----7----------------|---------------7------------|-5--------4---------------||||||||||/
|--------2-------------------|-5-------------------|-----------7----------------|-5--------4---------------||||||||||\
|----------------------------|---------------------|-------5--------------------|-3--------2---------------||||||||||/

|------------------------------|------------------------|------------------------|------------------------|||||||||||\
|------------------------------|------------------------|------------------------|------------------------|||||||||||/
|-------4--4--4--4--4--4--4--4-|-7--7--7--7--7--7--7--7-|-6--6--6--6--6--6--6--6-|-4--4--4--4--3--3--3--3-|||||||||||\
|-------x--x--x--x--x--x--x--x-|-x--x--x--x--x--x--x--x-|-x--x--x--x--x--x--x--x-|-x--x--x--x--x--x--x--x-|||||||||||/
|-------2--2--2--2--2--2--2--2-|-5--5--5--5--5--5--5--5-|-4--4--4--4--4--4--4--4-|-2--2--2--2--1--1--1--1-|||||||||||\
|------------------------------|------------------------|------------------------|------------------------|||||||||||/
*CHORUS
|--------------------------|--------------------------|--------------------------|--------------------------|||||||||\
|--------------------------|--------------------------|--------------------------|--------------------------|||||||||/
|--4--4--4--4--4--4--4--4--|--------------------------|--------------------------|--------------------------|||||||||\
|--4--4--4--4--4--4--4--4--|--4--4--4--4--4--4--4--4--|--7--7--7--7--7--7--7--7--|--5--5--5--5--4--4--4--4--|||||||||/
|--2--2--2--2--2--2--2--2--|--4--4--4--4--4--4--4--4--|--7--7--7--7--7--7--7--7--|--5--5--5--5--4--4--4--4--|||||||||\
|--------------------------|--2--2--2--2--2--2--2--2--|--5--5--5--5--5--5--5--5--|--3--3--3--3--2--2--2--2--|||||||||/

|--------------------------|--------------------------|--------------------------|--------------------------|||||||||\
|--------------------------|--------------------------|--------------------------|--------------------------|||||||||/
|--4--4--4--4--4--4--4--4--|--------------------------|--------------------------|--------------------------|||||||||\
|--4--4--4--4--4--4--4--4--|--4--4--4--4--4--4--4--4--|--7--7--7--7--7--7--7--7--|--5--5--5--5--4--4--4--4--|||||||||/
|--2--2--2--2--2--2--2--2--|--4--4--4--4--4--4--4--4--|--7--7--7--7--7--7--7--7--|--5--5--5--5--4--4--4--4--|||||||||\
|--------------------------|--2--2--2--2--2--2--2--2--|--5--5--5--5--5--5--5--5--|--3--3--3--3--2--2--2--2--|||||||||/
*INTERLUDE
|-----------------------------|---------------|---------------------------|-0-------0----||||||||||||||||||||||||||||\
|-----------------------------|---------------|---------------------------|-0-------0----||||||||||||||||||||||||||||\
|---4-----6b(1/2)r------------|---------------|----------6b(1/2)----------|-4-------3----||||||||||||||||||||||||||||\
|---4----------------7--------|---------------|--------------------7------|-5-------4----||||||||||||||||||||||||||||/
|---2-------------------------|---------------|-4-------------------------|-5-------4----||||||||||||||||||||||||||||\
|-----------------------------|---------------|---------------------------|-3-------2----||||||||||||||||||||||||||||/
*VERSE 2
|-----7--------|-----------------------------|---------------------|-----------------------|-7--------|||||||||||||||/
|-----7--------|-----------------------------|---------------------|-----------------------|-7--------|||||||||||||||\
|-----7--------|---------6b(1/2)r(6)---------|---------------------|-----------------------|-7--------|||||||||||||||/
|-----9--------|-----------------------7-----|---------------------|-9\\\\\\\\\\\8~~~~~~~~~|-9--------|||||||||||||||\
|-----9--------|-----------------------------|---------------------|-----------------------|-9--------|||||||||||||||/
|-----7--------|-----------------------------|---------------------|-----------------------|-7--------|||||||||||||||\

|-----------------------------|---------------------|-----------------------|||||||||||||||||||||||||||||||||||||||||/
|-----------------------------|---------------------|-----------------------|||||||||||||||||||||||||||||||||||||||||\
|---------6b(1/2)r(6)---------|---------------------|-----------------------|||||||||||||||||||||||||||||||||||||||||/
|-----------------------7-----|---------------------|-9\\\\\\\\\\\8~~~~~~~~~|||||||||||||||||||||||||||||||||||||||||\
|-----------------------------|---------------------|-----------------------|||||||||||||||||||||||||||||||||||||||||/
|-----------------------------|---------------------|-----------------------|||||||||||||||||||||||||||||||||||||||||\

|------------------------------|------------------------|------------------------|------------------------|||||||||||\
|------------------------------|------------------------|------------------------|------------------------|||||||||||/
|-------4--4--4--4--4--4--4--4-|-7--7--7--7--7--7--7--7-|------------------------|------------------------|||||||||||\
|-------4--4--4--4--4--4--4--4-|-7--7--7--7--7--7--7--7-|-7--7--7--7--7--7--7--7-|-5--5--5--5--4--4--4--4-|||||||||||/
|-------2--2--2--2--2--2--2--2-|-5--5--5--5--5--5--5--5-|-7--7--7--7--7--7--7--7-|-5--5--5--5--4--4--4--4-|||||||||||\
|------------------------------|------------------------|-5--5--5--5--5--5--5--5-|-3--3--3--3--2--2--2--2-|||||||||||/

|------------------------------|------------------------|------------------------|------------------------|||||||||||\
|------------------------------|------------------------|------------------------|------------------------|||||||||||/
|-------4--4--4--4--4--4--4--4-|-7--7--7--7--7--7--7--7-|-6--6--6--6--6--6--6--6-|-4--4--4--4--3--3--3--3-|||||||||||\
|-------x--x--x--x--x--x--x--x-|-x--x--x--x--x--x--x--x-|-x--x--x--x--x--x--x--x-|-x--x--x--x--x--x--x--x-|||||||||||/
|-------2--2--2--2--2--2--2--2-|-5--5--5--5--5--5--5--5-|-4--4--4--4--4--4--4--4-|-2--2--2--2--1--1--1--1-|||||||||||\
|------------------------------|------------------------|------------------------|------------------------|||||||||||/
*CHORUS
|--------------------------|--------------------------|--------------------------|--------------------------|||||||||\
|--------------------------|--------------------------|--------------------------|--------------------------|||||||||/
|--4--4--4--4--4--4--4--4--|--------------------------|--------------------------|--------------------------|||||||||\
|--4--4--4--4--4--4--4--4--|--4--4--4--4--4--4--4--4--|--7--7--7--7--7--7--7--7--|--5--5--5--5--4--4--4--4--|||||||||/
|--2--2--2--2--2--2--2--2--|--4--4--4--4--4--4--4--4--|--7--7--7--7--7--7--7--7--|--5--5--5--5--4--4--4--4--|||||||||\
|--------------------------|--2--2--2--2--2--2--2--2--|--5--5--5--5--5--5--5--5--|--3--3--3--3--2--2--2--2--|||||||||/

|--------------------------|--------------------------|--------------------------|--------------------------|||||||||\
|--------------------------|--------------------------|--------------------------|--------------------------|||||||||/
|--4--4--4--4--4--4--4--4--|--------------------------|--------------------------|--------------------------|||||||||\
|--4--4--4--4--4--4--4--4--|--4--4--4--4--4--4--4--4--|--7--7--7--7--7--7--7--7--|--5--5--5--5--4--4--4--4--|||||||||/
|--2--2--2--2--2--2--2--2--|--4--4--4--4--4--4--4--4--|--7--7--7--7--7--7--7--7--|--5--5--5--5--4--4--4--4--|||||||||\
|--------------------------|--2--2--2--2--2--2--2--2--|--5--5--5--5--5--5--5--5--|--3--3--3--3--2--2--2--2--|||||||||/
*Guitar Solo
|---------------------------------|---------------------------------|--------------------------------------||||||||||/
|---------------------------------|---------------------------------|--------------------------------------||||||||||\
|------7-(7)b(1/4)----------------|------7-(7)b(1/4)----------------|------7-(7)b(1/4)--------7-9-9b(full)-||||||||||/
|-/9----------------9~~~~~~~~(9)\-|-/9----------------9~~~~~~~~(9)\-|-/9----------------9------------------||||||||||\
|---------------------------------|---------------------------------|--------------------------------------||||||||||/
|---------------------------------|---------------------------------|--------------------------------------||||||||||\

|--------------------------|-17---------------17--------------|-17------------------17--17~~~~~~~~(17)\--------------|
|--------------------------|-17b(full)-(17)r--15b(full)-(15)r-|-17b(full)-(17)r-p15-17--17~~~~~~~~(17)\------------7-|
|-----(9)--9r-----7--7~~~~~|----------------------------------|-----------------------------------------9b(full)-----|
|--------------------------|----------------------------------|------------------------------------------------------|
|--------------------------|----------------------------------|------------------------------------------------------|
|--------------------------|----------------------------------|------------------------------------------------------|

|-----7---------------------------------7-10p7-10/12~~|~~-10h12p10----10-----------------------------||||||||||||||||\
|-------10p7----7---------------------7---------------|------------12--------------------------------||||||||||||||||/
|------------10---10p9p7-9b(full)---------------------|-------------------12/9p7-9(1/2)-9p7----------||||||||||||||||\
|-----------------------------------------------------|-------------------------------------9p7-9~~~~||||||||||||||||/
|-----------------------------------------------------|----------------------------------------------||||||||||||||||\
|-----------------------------------------------------|----------------------------------------------||||||||||||||||/
*BRIDGE
|----------------------------|------------------------|------------------------|------------------------|||||||||||||/
|----------------------------|------------------------|------------------------|------------------------|||||||||||||\
|-----4--4--4--4--4--4--4--4-|-7--7--7--7--7--7--7--7-|------------------------|------------------------|||||||||||||/
|-----4--4--4--4--4--4--4--4-|-7--7--7--7--7--7--7--7-|-7--7--7--7--7--7--7--7-|-5--5--5--5--4--4--4--4-|||||||||||||\
|-----2--2--2--2--2--2--2--2-|-5--5--5--5--5--5--5--5-|-7--7--7--7--7--7--7--7-|-5--5--5--5--4--4--4--4-|||||||||||||/
|----------------------------|------------------------|-5--5--5--5--5--5--5--5-|-3--3--3--3--2--2--2--2-|||||||||||||\

|----------------------------|------------------------|------------------------|------------------------|||||||||||||/
|----------------------------|------------------------|------------------------|------------------------|||||||||||||\
|-----4--4--4--4--4--4--4--4-|-7--7--7--7--7--7--7--7-|------------------------|------------------------|||||||||||||/
|-----4--4--4--4--4--4--4--4-|-7--7--7--7--7--7--7--7-|-7--7--7--7--7--7--7--7-|-5--5--5--5--4--4--4--4-|||||||||||||\
|-----2--2--2--2--2--2--2--2-|-5--5--5--5--5--5--5--5-|-7--7--7--7--7--7--7--7-|-5--5--5--5--4--4--4--4-|||||||||||||/
|----------------------------|------------------------|-5--5--5--5--5--5--5--5-|-3--3--3--3--2--2--2--2-|||||||||||||\

|----------------------------|------------------------|------------------------|------------------------|||||||||||||/
|----------------------------|------------------------|------------------------|------------------------|||||||||||||\
|-----4--4--4--4--4--4--4--4-|-7--7--7--7--7--7--7--7-|------------------------|------------------------|||||||||||||/
|-----4--4--4--4--4--4--4--4-|-7--7--7--7--7--7--7--7-|-7--7--7--7--7--7--7--7-|-5--5--5--5--4--4--4--4-|||||||||||||\
|-----2--2--2--2--2--2--2--2-|-5--5--5--5--5--5--5--5-|-7--7--7--7--7--7--7--7-|-5--5--5--5--4--4--4--4-|||||||||||||/
|----------------------------|------------------------|-5--5--5--5--5--5--5--5-|-3--3--3--3--2--2--2--2-|||||||||||||\

|---------------------|---------------------|-14---------------14---------------14--------|-14---------------14---------------14--------|
|---------------------|---------------------|-17b(full)--------17b(full)--------17b(full)-|-17b(full)--------17b(full)--------17b(full)-|
|-4--4--4--4--4--4--4-|-7--7--7--7--7--7--7-|---------------------------------------------|---------------------------------------------|
|-4--4--4--4--4--4--4-|-7--7--7--7--7--7--7-|---------------------------------------------|---------------------------------------------|
|-2--2--2--2--2--2--2-|-5--5--5--5--5--5--5-|---------------------------------------------|---------------------------------------------|
|---------------------|---------------------|---------------------------------------------|---------------------------------------------|
*CHORUS
|--------------------------|--------------------------|--------------------------|--------------------------|||||||||\
|--------------------------|--------------------------|--------------------------|--------------------------|||||||||/
|--4--4--4--4--4--4--4--4--|--------------------------|--------------------------|--------------------------|||||||||\
|--4--4--4--4--4--4--4--4--|--4--4--4--4--4--4--4--4--|--7--7--7--7--7--7--7--7--|--5--5--5--5--4--4--4--4--|||||||||/
|--2--2--2--2--2--2--2--2--|--4--4--4--4--4--4--4--4--|--7--7--7--7--7--7--7--7--|--5--5--5--5--4--4--4--4--|||||||||\
|--------------------------|--2--2--2--2--2--2--2--2--|--5--5--5--5--5--5--5--5--|--3--3--3--3--2--2--2--2--|||||||||/

|--------------------------|--------------------------|--------------------------|--------------------------|||||||||\
|--------------------------|--------------------------|--------------------------|--------------------------|||||||||/
|--4--4--4--4--4--4--4--4--|--------------------------|--------------------------|--------------------------|||||||||\
|--4--4--4--4--4--4--4--4--|--4--4--4--4--4--4--4--4--|--7--7--7--7--7--7--7--7--|--5--5--5--5--4--4--4--4--|||||||||/
|--2--2--2--2--2--2--2--2--|--4--4--4--4--4--4--4--4--|--7--7--7--7--7--7--7--7--|--5--5--5--5--4--4--4--4--|||||||||\
|--------------------------|--2--2--2--2--2--2--2--2--|--5--5--5--5--5--5--5--5--|--3--3--3--3--2--2--2--2--|||||||||/
*OUTRO
|----------------------------|------------------------|------------------------|------------------------|||||||||||||/
|----------------------------|------------------------|------------------------|------------------------|||||||||||||\
|-----4--4--4--4--4--4--4--4-|-7--7--7--7--7--7--7--7-|------------------------|------------------------|||||||||||||/
|-----4--4--4--4--4--4--4--4-|-7--7--7--7--7--7--7--7-|-7--7--7--7--7--7--7--7-|-5--5--5--5--4--4--4--4-|||||||||||||\
|-----2--2--2--2--2--2--2--2-|-5--5--5--5--5--5--5--5-|-7--7--7--7--7--7--7--7-|-5--5--5--5--4--4--4--4-|||||||||||||/
|----------------------------|------------------------|-5--5--5--5--5--5--5--5-|-3--3--3--3--2--2--2--2-|||||||||||||\

|------------------------------|------------------------|------------------------|------------------------|||||||||||\
|------------------------------|------------------------|------------------------|------------------------|||||||||||/
|-------4--4--4--4--4--4--4--4-|-7--7--7--7--7--7--7--7-|-6--6--6--6--6--6--6--6-|-4--4--4--4--3--3--3--3-|||||||||||\
|-------x--x--x--x--x--x--x--x-|-x--x--x--x--x--x--x--x-|-x--x--x--x--x--x--x--x-|-x--x--x--x--x--x--x--x-|||||||||||/
|-------2--2--2--2--2--2--2--2-|-5--5--5--5--5--5--5--5-|-4--4--4--4--4--4--4--4-|-2--2--2--2--1--1--1--1-|||||||||||\
|------------------------------|------------------------|------------------------|------------------------|||||||||||/

|-------------------------||
|-------------------------||
|---4--4--4--4--4--4--4---||
|---4--4--4--4--4--4--4---||
|---2--2--2--2--2--2--2---||
|-------------------------||

*************************************************************************************************************************************
A 'Simplified' Solo
*************************************************************************************************************************************

|------------------------------------------------------------------------------------------17-------------17-----------|
|------------------------------------------------------------------------------------------17b(full)-17---15b(full)-15-|
|--------7-----------------7-----------------7---------7--9-9b(full)---9r-----7---7~~~---------------------------------|
|---/9-------9~~~~~---/9-------9~~~~~---/9-------9---------------------------------------------------------------------|
|----------------------------------------------------------------------------------------------------------------------|
|----------------------------------------------------------------------------------------------------------------------|

|---17--------------17~~~~~~~~------------------7-----------------------------7-10p7-10/12~~~---10h12p10-----10--------|
|---17b(full)r--15--17~~~~~~~~--------------7-----10p7----7-----------------7-----------------------------12-----------|
|--------------------------------9b(full)--------------10---10p9p7-9b(full)--------------------------------------------|
|----------------------------------------------------------------------------------------------------------------------|
|----------------------------------------------------------------------------------------------------------------------|
|----------------------------------------------------------------------------------------------------------------------|

|----------------------------------------------------------------------------------------------------------------------|
|----------------------------------------------------------------------------------------------------------------------|
|---12\9p7--9b(1/2)--9p7-----------------------------------------------------------------------------------------------|
|------------------------9p7--9----------------------------------------------------------------------------------------|
|----------------------------------------------------------------------------------------------------------------------|
|----------------------------------------------------------------------------------------------------------------------|

*************************************************************************************************************************************
A 'Chords Only' Version
*************************************************************************************************************************************

INTRO-

- - - Bm - D - A - G - F# - - -

VERSE-

Bm                 D    A              G F#
   Well, I got a candle, and I've got a spoon. 

Bm               D             A           G F#
   I live in a hallway with no doors and no rooms.

Bm               D       A               G F#
   And under a windowsill they all were found.

     Bm                  D               A            G F#
   A touch of concrete within the doorway, without a sound.


CHORUS-

Bm              D                A        G         F#   
Someone save me if you will, and take away all these pills.

    Bm                 D                       A      G       F#
And please just save me, if you can, from my blashpemy in my wasteland.



INTERLUDE-

- - - Bm - D - A - G - F# - - -

VERSE 2-

Bm            D       A           G  F# 
   How did I get here, and what went wrong?

Bm                     D                A      G   F#   
   Couldn't handle forgiveness, now I'm far beyond gone.

Bm                     D         A               G F# 
   And I can hardly remember the look of my own eyes.
  
Bm                           D                       A              G F#      
   How could I love this? My life's so dishonest, it made me compromise.


CHORUS-

Bm              D                A        G         F#   
Someone save me if you will, and take away all these pills.

    Bm                 D                       A      G       F#
And please just save me, if you can, from my blashpemy in my wasteland.


BRIDGE

Bm    D             A    G        F#
  Jump in the water, jump in with me.
        
Bm    D             A              G F#
  Jump on the altar, lay down with me.
        
Bm             D          A   G F#   
  The hardest question to answer is why, why.


CHORUS-

Bm              D                A        G         F#   
Someone save me if you will, and take away all these pills.

    Bm                 D                       A      G       F#
And please just save me, if you can, from my blashpemy in my wasteland.


OUTRO

Bm             D A              G F#
Someone save me, someone save me,
       
Bm                D 
Somebody save me, somebody save me,
       
A                    G F# - Bm
Please don't erase me.

*************************************************************************************************************************************
Riffs, Rythym Figures, Rythym Fills and Unknown Measures {Also the Solo}
*************************************************************************************************************************************



-----
RIFFS
-----

RIFF A

|-----------------------------|---------------|-----------------------------|--------------|
|-----------------------------|---------------|-----------------------------|--------------|
|---------6b(1/2)r(6)---------|---------------|---------6b(1/2)r(6)---------|--------------|
|-----------------------7-----|---------------|-----------------------7-----|-9\\\\\\\8~~~~|
|-----------------------------|---------------|-----------------------------|--------------|
|-----------------------------|---------------|-----------------------------|--------------|

RIFF B

|-----------------------------|---------------------|-----------------------|
|-----------------------------|---------------------|-----------------------|
|---------6b(1/2)r(6)---------|---------------------|-----------------------|
|-----------------------7-----|---------------------|-9\\\\\\\\\\\8~~~~~~~~~|
|-----------------------------|---------------------|-----------------------|
|-----------------------------|---------------------|-----------------------|

RIFF C

|---------14--10------12-----|---------------------|
|----------------------------|---------------------|
|----------------------------|---------------------|
|----------------------------|---------------------|
|----------------------------|---------------------|
|----------------------------|---------------------|

RIFF D

|--------------------------|--------------------------|--------------------------|--------------------------|
|--------------------------|--------------------------|--------------------------|--------------------------|
|--------------------------|--------------------------|--------------------------|--------------------------|
|--9--9--9--9--9--9--9--9--|--4--4--4--4--4--4--4--4--|--7--7--7--7--7--7--7--7--|--5--5--5--5--4--4--4--4--|
|--------------------------|--------------------------|--------------------------|--------------------------|
|--------------------------|--------------------------|--------------------------|--------------------------|

RIFF E

|-----7-----------------7----|-9-----------------9----|-9-----------------9----|-7-----------6----------|
|--------------7-------------|----------10------------|----------10------------|-8-----------7----------|
|----------------------------|------------------------|------------------------|-7-----------6----------|
|-----9----------------------|------------------------|------------------------|------------------------|
|----------------------------|------------------------|------------------------|------------------------|
|----------------------------|------------------------|------------------------|------------------------|

--------------
RYTHYM FIGURES
--------------

RYTHYM FIGURE 1

|----------------------|-----------------------------|
|----------------------|-----------------------------|
|------4---------------|-----------------------------|
|------4---------------|-----------------------------|
|------2---------------|-----------------------------|
|----------------------|-----------------------------|

RYTHYM FIGURE 2

|------------------------------|------------------------|------------------------|------------------------|
|------------------------------|------------------------|------------------------|------------------------|
|-------4--4--4--4--4--4--4--4-|-7--7--7--7--7--7--7--7-|-6--6--6--6--6--6--6--6-|-4--4--4--4--3--3--3--3-|
|-------x--x--x--x--x--x--x--x-|-x--x--x--x--x--x--x--x-|-x--x--x--x--x--x--x--x-|-x--x--x--x--x--x--x--x-|
|-------2--2--2--2--2--2--2--2-|-5--5--5--5--5--5--5--5-|-4--4--4--4--4--4--4--4-|-2--2--2--2--1--1--1--1-|
|------------------------------|------------------------|------------------------|------------------------|

RYTHYM FIGURE 3

|--------------------------|--------------------------|--------------------------|--------------------------|
|--------------------------|--------------------------|--------------------------|--------------------------|
|--4--4--4--4--4--4--4--4--|--------------------------|--------------------------|--------------------------|
|--4--4--4--4--4--4--4--4--|--4--4--4--4--4--4--4--4--|--7--7--7--7--7--7--7--7--|--5--5--5--5--4--4--4--4--|
|--2--2--2--2--2--2--2--2--|--4--4--4--4--4--4--4--4--|--7--7--7--7--7--7--7--7--|--5--5--5--5--4--4--4--4--|
|--------------------------|--2--2--2--2--2--2--2--2--|--5--5--5--5--5--5--5--5--|--3--3--3--3--2--2--2--2--|

RYTHYM FIGURE 4A

|------------------------------|------------------------|------------------------|------------------------|
|------------------------------|------------------------|------------------------|------------------------|
|-------11-11-11-11-11-11-11-11|-14-14-14-14-14-14-14-14|-14-14-14-14-14-14-14-14|-12-12-12-12-11-11-11-11|
|-------x--x--x--x--x--x--x--x-|-x--x--x--x--x--x--x--x-|-x--x--x--x--x--x--x--x-|-x--x--x--x--x--x--x--x-|
|-------9--9--9--9--9--9--9--9-|-12-12-12-12-12-12-12-12|-12-12-12-12-12-12-12-12|-10-10-10-10-9--9--9--9-|
|------------------------------|------------------------|------------------------|------------------------|

RYTHYM FIGURE 4B

|------------------------------|------------------------|------------------------|------------------------|
|------------------------------|------------------------|------------------------|------------------------|
|-------11-11-11-11-11-11-11-11|-11-11-11-11-11-11-11-11|-9--9--9--9--9--9--9--9-|-7--7--7--7--6--6--6--6-|
|-------x--x--x--x--x--x--x--x-|-x--x--x--x--x--x--x--x-|-x--x--x--x--x--x--x--x-|-x--x--x--x--x--x--x--x-|
|-------9--9--9--9--9--9--9--9-|-9--9--9--9--9--9--9--9-|-7--7--7--7--7--7--7--7-|-5--5--5--5--4--4--4--4-|
|------------------------------|------------------------|------------------------|------------------------|

RYTHYM FIGURE 5

|----------------------------|------------------------|------------------------|------------------------|
|----------------------------|------------------------|------------------------|------------------------|
|-----4--4--4--4--4--4--4--4-|-7--7--7--7--7--7--7--7-|------------------------|------------------------|
|-----4--4--4--4--4--4--4--4-|-7--7--7--7--7--7--7--7-|-7--7--7--7--7--7--7--7-|-5--5--5--5--4--4--4--4-|
|-----2--2--2--2--2--2--2--2-|-5--5--5--5--5--5--5--5-|-7--7--7--7--7--7--7--7-|-5--5--5--5--4--4--4--4-|
|----------------------------|------------------------|-5--5--5--5--5--5--5--5-|-3--3--3--3--2--2--2--2-|

------------
RYTHYM FILLS
------------

RYTHYM FILL 1

|-0-------0----|
|-0-------0----|
|-4-------3----|
|-5-------4----|
|-5-------4----|
|-3-------2----|

----
SOLO
----

|---------------------------------|---------------------------------|--------------------------------------|
|---------------------------------|---------------------------------|--------------------------------------|
|------7-(7)b(1/4)----------------|------7-(7)b(1/4)----------------|------7-(7)b(1/4)--------7-9-9b(full)-|
|-/9----------------9~~~~~~~~(9)\-|-/9----------------9~~~~~~~~(9)\-|-/9----------------9------------------|
|---------------------------------|---------------------------------|--------------------------------------|
|---------------------------------|---------------------------------|--------------------------------------|

|--------------------------|-17---------------17--------------|-17------------------17--17~~~~~~~~(17)\--------------|
|--------------------------|-17b(full)-(17)r--15b(full)-(15)r-|-17b(full)-(17)r-p15-17--17~~~~~~~~(17)\------------7-|
|-----(9)--9r-----7--7~~~~~|----------------------------------|-----------------------------------------9b(full)-----|
|--------------------------|----------------------------------|------------------------------------------------------|
|--------------------------|----------------------------------|------------------------------------------------------|
|--------------------------|----------------------------------|------------------------------------------------------|

|-----7---------------------------------7-10p7-10/12~~|~~-10h12p10----10-----------------------------|
|-------10p7----7---------------------7---------------|------------12--------------------------------|
|------------10---10p9p7-9b(full)---------------------|-------------------12/9p7-9(1/2)-9p7----------|
|-----------------------------------------------------|-------------------------------------9p7-9~~~~|
|-----------------------------------------------------|----------------------------------------------|
|-----------------------------------------------------|----------------------------------------------|

----------------
UNKNOWN MEASURES
----------------

UNKNOWN 1

|----------------------|-----------------------------|---------------------|-----------------------|
|----------------------|-----------------------------|---------------------|-----------------------|
|----------------------|---------6b(1/2)r(6)---------|---------------------|-4----------3----------|
|----------------------|-----------------------7-----|---------------------|-5----------4----------|
|----------------------|-----------------------------|---------------------|-----------------------|
|----------------------|-----------------------------|---------------------|-----------------------|

UNKNOWN 2

|----------------------------|----------0----------|----------------------------|
|-----------------0----------|---------------------|-------------------0--------|
|--------------4-------------|-------7-------------|----------------------------|
|-----------4----------------|----7----------------|---------------7------------|
|--------2-------------------|-5-------------------|-----------7----------------|
|----------------------------|---------------------|-------5--------------------|

UNKNOWN 3

|-----7--------|-----------------------------|---------------------|-----------------------|
|-----7--------|-----------------------------|---------------------|-----------------------|
|-----7--------|-----------------------------|---------------------|-----------------------|
|-----9--------|-----------------------------|---------------------|-----------------------|
|-----9--------|-----------------------------|---------------------|-----------------------|
|-----7--------|-----------------------------|---------------------|-----------------------|

UNKNOWN 4

|------------------------------|------------------------|------------------------|------------------------|
|------------------------------|------------------------|------------------------|------------------------|
|-------4--4--4--4--4--4--4--4-|-7--7--7--7--7--7--7--7-|------------------------|------------------------|
|-------4--4--4--4--4--4--4--4-|-7--7--7--7--7--7--7--7-|-7--7--7--7--7--7--7--7-|-5--5--5--5--4--4--4--4-|
|-------2--2--2--2--2--2--2--2-|-5--5--5--5--5--5--5--5-|-7--7--7--7--7--7--7--7-|-5--5--5--5--4--4--4--4-|
|------------------------------|------------------------|-5--5--5--5--5--5--5--5-|-3--3--3--3--2--2--2--2-|

UNKNOWN 5

|---------------------|---------------------|---------------------------------------------|---------------------------------------------|
|---------------------|---------------------|---------------------------------------------|---------------------------------------------|
|-4--4--4--4--4--4--4-|-7--7--7--7--7--7--7-|---------------------------------------------|---------------------------------------------|
|-4--4--4--4--4--4--4-|-7--7--7--7--7--7--7-|-5h7--7--7--7-----5h7--7--7--7-----5h7--7----|-5----5----5----5-----4----4----4----4-------|
|-2--2--2--2--2--2--2-|-5--5--5--5--5--5--5-|-5h7--7--7--7-----5h7--7--7--7-----5h7--5----|-5----5----5----5-----4----4----4----4-------|
|---------------------|---------------------|-5-------5--5-----5----5--5--5-----5----5----|-3----3----3----3-----2----2----2----2-------|

UNKNOWN 6

|-------------------------|
|-------------------------|
|---4--4--4--4--4--4--4---|
|---4--4--4--4--4--4--4---|
|---2--2--2--2--2--2--2---|
|-------------------------|

UNKNOWN 7

|--------------|-----------------------------|---------------------|-----------------------|----------|
|--------------|-----------------------------|---------------------|-----------------------|----------|
|--------------|-----------------------------|---------------------|-----------------------|----------|
|--------------|-----------------------------|---------------------|-----------------------|----------|
|-----2--------|-----------------------------|---------------------|-----------------------|----------|
|--------------|-----------------------------|---------------------|-----------------------|----------|

UNKNOWN 8

|-14---------------14---------------14--------|-14---------------14---------------14--------|
|-17b(full)--------17b(full)--------17b(full)-|-17b(full)--------17b(full)--------17b(full)-|
|---------------------------------------------|---------------------------------------------|
|---------------------------------------------|---------------------------------------------|
|---------------------------------------------|---------------------------------------------|
|---------------------------------------------|---------------------------------------------|


*************************************************************************************************************************************
All Guitars 'Measured Out' in Order
*************************************************************************************************************************************

*********
Guitar 1
*********

*RIFF A
*RIFF B
*UNKNOWN 1
*RIFF C - 3x
*Gtr.1 - tacet ( 10 Measures )
*RIFF A
*Gtr. 1 - tacet ( 1 Measure )
*RIFF B
*RIFF C - 3x
*Gtr.1 - tacet ( 35 Measures )

*********
Guitar 2
*********

*Gtr.2 - tacet ( 2 Measures )
*RHYTHYM FIGURE 1 
*Gtr.2 ( 2 Measures )
*RHYTHYM FIGURE 1
*UNKNOWN 2 
*RYTHYM FILL 1
*RYTHY FIGURE 2
*Gtr.2 - tacet ( 4 Measures )
*REST ( 3 Measures )
*RYTHYM FILL 1
*UNKNOWN 3 - 2x
*UNKNOWN 4
*RYTHYM FIGURE 2
*Gtr.2 - tacet ( 31 Measures )

*********
Guitar 3
*********

*Gtr.3 - tacet ( 21 Measures )
*RIFF D - 2x
*Gtr.3 - tacet ( 20 Measures )
*RIFF D - 2x
*REST ( 1 Measure )
*Gtr.3 - tacet ( 8 Measures )
*RHYTHYM FIGURE 5 - 3x
*UNKNOWN 5
*RIFF D - 2x
*RYTHYM FIGURE 5
*RYTHYM FIGURE 2
*UNKNOWN 6

*********
Guitar 4
*********

*Gtr.4 - tacet ( 21 Measures )
*RHYTHYM FIGURE 3 - 2x
*REST ( 4 Measures )
*UNKNOWN 7
*Gtr.4 - tacet ( 13 Measures )
*RYTHYM FIGURE 3 - 4x
*RYTHYM FIGURE 5 - 3x
*UNKNOWN 5
*RYTHYM FIGURE 5
*RYTHYM FIGURE 2
*UNKNOWN 6

*********
Guitar 5
*********

*Gtr.5 - tacet ( 41 Measures )
*RYTHYM FIGURE 4A
*Gtr.5 - tacet ( 29 Measures )
*RYTHYM FIGURE 4A
*Gtr.5 tacet ( 1 Measure )

*********
Guitar 6 
*********

*Gtr.6 - tacet ( 41 Measures )
*RYTHYM FIGURE 4B
*Gtr.6 - tacet ( 29 Measures )
*RYTHYM FIGURE 4B
*Gtr.6 - tacet ( 1 Measure )

*********
Guitar 7
*********

*Gtr.7 - tacet ( 54 Measures )
*SOLO
*Gtr.7 - tacet ( 8 Measures )
*UNKNOWN 9
*Gtr.7 - tacet ( 12 Measures )

*********
Guitar 8
*********

*Gtr.8 - tacet ( 62 Measures )
*RIFF E - 2x
*Gtr.8 tacet ( 9 Measures )



<*************************************************************************************************************************************>
<*************************************************************************************************************************************>
<*************************************************************************************************************************************>
<*************************************************************************************************************************************>
<*************************************************************************************************************************************>


NOTE: Fabulous song. Well, for those of you that have been following up on the 'Tab Abuser' case, I think I have a victum.
      'rye dude 802' has been posting porno comments, talking smack at me as if we hated each others gutts for years.
      I never did anything to this guy. My tabs might not have been perfect, but c'mon, the dude has been rating all of them
      1 meezly star. He never gave any correction of any kind, not even any constructual critizism. He corrected the
      'Atmosphere' tab of mine. But he corrected it with the exact same notes, only in a different format. Did the format
      really count that much to you, rye? What are you looking to gain in your hateful comments. At first I thought he
      might have been super strict with peoples tab work (wich would have been better). But who is he to hand out mindless
      advise, he has ONE contribution. I should be talking about your momma, only I'm not the scarce, punk-ass little 
      chicken-shit you are, rye DUDET 80whatever. Maybe I am a little hateful, but damn it, I have the right to be.
      I didn't go screwing up anybodies tabs, just for the hell of it. SHUT THE FUCK UP, rye. Anyway, good song. The ver.3
      tab was kind of a bombshell. This one should be better though, it'lle show.

            Well... ...ENJOY!!!
 
                         -Asa

      (OH, rye dude, you better post something nice about ver.3, or we'lle be agreeing with each other, you don't want that
       to happen!!!!! )

IF IT LOOKS ALL MESSED UP, JUST COPY THE WORDS TO NOTEPAD AND YOURE GOOD!

 
Related for Save Me tab