Song name
# A B C D E F G H I J K L M N O P Q R S T U V W X Y Z

Shinedown - In Memory tab

Song:In memory
Band:Shinedown
This is a pretty cool song. its a really fun one to jam to. if you have any questions or 
about it my e-mail is bradfurd7@juno.com
Intro                                                     x2
E|---------------------------------------------------------|
B|---------------------------------------------------------|
G|---------7----------------------------7------------------|
D|-0-3---0-7---0-5---0-8--------0-3---0-7---0-5---0-8h10p8-|
A|-0-3---0-5---0-5---0-8--------0-3---0-5---0-5---0-8h10p8-|
D|-0-3---0-----0-5---0-8--------0-3---0-----0-5---0-8h10p8-|
Verse (Strum rhythm)                                      x1
E|---------------------------------------------------------|
B|-3------------3-------------3--------------------------3-|
G|-2---2----3---2----5----3---2---2----3---2----3----5---0-|
D|-0---2----3---0----5----3---0---2----3---2----3----5---0-|
A|-0---0----1---0----3----1---0---0----1---0----1----3---0-|
D|-0------------0-------------0--------------------------5-|
Chorus (strum rhythm)   x2
E|------------------------|
B|-------3----------------|
G|--3----2-----5-----3----|
D|--3----0-----5-----3----|
A|--1----0-----3-----1----|
D|-------0----------------|
After chorus                                              x2
E|---------------------------------------------------------|
B|---------------------------------------------------------|
G|---------7----------------------------7------------------|
D|-0-3---0-7---0-5---0-8--------0-3---0-7---0-5---0-8h10p8-|
A|-0-3---0-5---0-5---0-8--------0-3---0-5---0-5---0-8h10p8-|
D|-0-3---0-----0-5---0-8--------0-3---0-----0-5---0-8h10p8-|
Verse (Strum rhythm)                                      x1
E|---------------------------------------------------------|
B|-3------------3-------------3--------------------------3-|
G|-2---2----3---2----5----3---2---2----3---2----3----5---0-|
D|-0---2----3---0----5----3---0---2----3---2----3----5---0-|
A|-0---0----1---0----3----1---0---0----1---0----1----3---0-|
D|-0------------0-------------0--------------------------5-|
Chorus (strum rhythm)   x2
E|------------------------|
B|-------3----------------|
G|--3----2-----5-----3----|
D|--3----0-----5-----3----|
A|--1----0-----3-----1----|
D|-------0----------------|
After chorus                                              x2
E|---------------------------------------------------------|
B|---------------------------------------------------------|
G|---------7----------------------------7------------------|
D|-0-3---0-7---0-5---0-8--------0-3---0-7---0-5---0-8h10p8-|
A|-0-3---0-5---0-5---0-8--------0-3---0-5---0-5---0-8h10p8-|
D|-0-3---0-----0-5---0-8--------0-3---0-----0-5---0-8h10p8-|
Bridge                                x8 Chorus (strum rhythm) x4
E|-----------------12-12-12-12-12-12-12|------------------------|
B|-------------------------------------|-------3----------------|
G|-------------------------------------|--3----2-----5-----3----|
D|-0-0--------0-0----------------------|--3----0-----5-----3----|
A|-0-0--------0-0----------------------|--1----0-----3-----1----|
D|-0-0--0-8/7-0-0----------------------|-------0----------------|
After chorus                                    1.      x4 2.
E|----------------------------------------------|----------|-----|
B|----------------------------------------------|----------|-----|
G|---------7----------------------------7-------|----------|---5-|
D|-0-3---0-7---0-5---0-8--------0-3---0-7---0-5-|-0-8h10p8-|-0-5-|
A|-0-3---0-5---0-5---0-8--------0-3---0-5---0-5-|-0-8h10p8-|-0-3-|
D|-0-3---0-----0-5---0-8--------0-3---0-----0-5-|-0-8h10p8-|-0---|
Tap to rate this tab
 
# A B C D E F G H I J K L M N O P Q R S T U V W X Y Z