Song name
# A B C D E F G H I J K L M N O P Q R S T U V W X Y Z

Shinedown - One tab

This is a great cover of U2's "One" I didn't tab for strumming very well, and there is 
all over the song, just listen to the song a few times. If you need help, email me.

    :VERSE 1:
   1.Is it getting better? Or do you feel the same?
   2.Will it make it easier on you now? You got someone to blame
 e|---------------------------------------------------------------|
 B|---------------------------------------------------------------|
 G|--5-7-5-7-5-7-7-7-5-7-5-7-5-7-5--2-2-x-2-2-2-2--4-5-4-5-4-5-4--|
 D|--7-7-7-7-7-7-7-7-7-7-7-7-7-7-7--3-3-x-3-3-3-3--5-5-5-5-5-5-5--|
 A|---------------------------------------------------------------|
 E|---------------------------------------------------------------|  X3

   :Chorus 1:
   You say..
           C         Am      Fmaj7       C
 e|----0-0-0-0-0--0-0-0-0--0-0-0-0-0--3-3-3-3--|
 B|----1-1-1-1-1--1-1-1-1--1-1-1-1-1--1-1-1-1--|
 G|----0-0-0-0-0--2-2-2-2--2-2-2-2-2--0-0-0-0--|
 D|---------------2-2-2-2--3----------2-2-2-2--|
 A|--3-----------------------------------------|
 E|--------------------------------------------|

   We get to share it..
       Am      Fmaj7      C
 e|--1-1-1-1--0-0-0-0--0-0-0-0------------------------------|
 B|--2-2-2-2--1-1-1-1--1-1-1-1------------------------------|
 G|--2-2-2-2--2-2-2-2--0-0-0-0--4-5-4-5-4-5-5-5--7-7-X-7-7--|
 D|--0-0-0-0--3--------2--------5-5-5-5-5-5-5-4--9-9-X-9-9--|
 A|---------------------------------------------------------|
 E|---------------------------------------------------------|

 e|---------------3-3-3-3-X-3-3-3-3--|
 B|---------------3-3-3-3-X-3-3-3-3--|
 G|--5-5-5-X-5-5---------------------|
 D|--7-7-7-X-7-7---------------------|
 A|----------------------------------|
 E|----------------------------------|

    :VERSE 2:
   1.Did I dissapoint you? Or leave a bad taste in your mouth?
   2.You act like you never had love, and you want me to go without.
 e|-----------------------------------------3-3-3-X-3-3-3--|
 B|--1-1-1-X-1-1--3-3-3-X-3-3--6-6-6-X-6-6--3-3-3-X-3-3-3--|
 G|--2-2-2-X-2-2--2-2-2-X-2-2--5-5-5-X-5-5-----------------|
 D|--------------------------------------------------------|
 A|--------------------------------------------------------|
 E|--------------------------------------------------------|  X2

   :Chorus 2:
   Well it's..
           C         Am      Fmaj7           C
 e|----0-0-0-0-0--0-0-0-0--0-0-0-0-0--3-3-3-3-3-3-3-3-|
 B|----1-1-1-1-1--1-1-1-1--1-1-1-1-1--1-1-1-1-1-1-1-1-|
 G|----0-0-0-0-0--2-2-2-2--2-2-2-2-2--0-0-0-0-0-0-0-0-|
 D|---------------2-2-2-2--3----------2-2-2-2-2-2-2-2-|
 A|--3------------------------------------------------|
 E|---------------------------------------------------|

    But were not the same...
       Am      Fmaj7      C
 e|--1-1-1-1--0-0-0-0--0-0-0-0------------------------------|
 B|--2-2-2-2--1-1-1-1--1-1-1-1------------------------------|
 G|--2-2-2-2--2-2-2-2--0-0-0-0--4-5-4-5-4-5-5-5--7-7-X-7-7--|
 D|--0-0-0-0--3--------2--------5-5-5-5-5-5-5-4--9-9-X-9-9--|
 A|---------------------------------------------------------|
 E|---------------------------------------------------------|

 e|---------------3-3-3-3-X-3-3-3-3--|
 B|---------------3-3-3-3-X-3-3-3-3--|
 G|--5-5-5-X-5-5---------------------|
 D|--7-7-7-X-7-7---------------------|
 A|----------------------------------|
 E|----------------------------------|

    :VERSE 3:
   1.Have you come here for forgiveness? Have you come to raise the dead?
   2.Have you come here to play Jesus..To the lepers in your head?
 e|-----------------------------------------3-3-3-X-3-3-3--|
 B|--1-1-1-X-1-1--3-3-3-X-3-3--6-6-6-X-6-6--3-3-3-X-3-3-3--|
 G|--2-2-2-X-2-2--2-2-2-X-2-2--5-5-5-X-5-5-----------------|
 D|--------------------------------------------------------|
 A|--------------------------------------------------------|
 E|--------------------------------------------------------|  X2

   :Chorus 3:
   Did I ask...
           C         Am      Fmaj7           C
 e|----0-0-0-0-0--0-0-0-0--0-0-0-0-0--3-3-3-3-3-3-3-3-|
 B|----1-1-1-1-1--1-1-1-1--1-1-1-1-1--1-1-1-1-1-1-1-1-|
 G|----0-0-0-0-0--2-2-2-2--2-2-2-2-2--0-0-0-0-0-0-0-0-|
 D|---------------2-2-2-2--3----------2-2-2-2-2-2-2-2-|
 A|--3------------------------------------------------|
 E|---------------------------------------------------|

       Am      Fmaj7      C
 e|--1-1-1-1--0-0-0-0--0-0-0-0------------------------------|
 B|--2-2-2-2--1-1-1-1--1-1-1-1------------------------------|
 G|--2-2-2-2--2-2-2-2--0-0-0-0--4-5-4-5-4-5-5-5--7-7-X-7-7--|
 D|--0-0-0-0--3--------2--------5-5-5-5-5-5-5-4--9-9-X-9-9--|
 A|---------------------------------------------------------|
 E|---------------------------------------------------------|

 e|---------------3-3-3-3-X-3-3-3-3--|
 B|---------------3-3-3-3-X-3-3-3-3--|
 G|--5-5-5-X-5-5---------------------|
 D|--7-7-7-X-7-7---------------------|
 A|----------------------------------|
 E|----------------------------------|

   :VERSE 4:
(Follow the patterns above for strumming)
 (but the chord progression will change)

       C                   Am
You Say Love is a temple, Love a higher law
 C                 Am
Love is a temple, Love the higher law
    C                    G
You ask me to enter, but then you make me crawl
		         Fmaj7
And I can't be holding on     to what you got
		     C           Am
When all you got is hurt one love  one blood
Fmaj7                    C
     One life you got to do what you should
        Am               Fmaj7       C
One life  with each other     Sisters brothers
                  Am
One life but we're  not the same
         Fmaj7                    C
We get to     carry each other carry each other

(Ending is improv, do you own thing)
Tap to rate this tab
 
# A B C D E F G H I J K L M N O P Q R S T U V W X Y Z