Song name
# A B C D E F G H I J K L M N O P Q R S T U V W X Y Z

Shinedown - Carried Away tab

The other EP that was on the re-release of Us And Them, also a great song. I did not tab 
strumming. This ( ~ ) mean to vibrate the note if you didnt know.

(Verse 1 - Guitar 1)
  Somethings wrong with you I see, your eyes have turned a shade of empty
  In my arms you pushed aside, wondered if you'd ever be
  Alright again and try to fix whats goin on inside of you
e|------------------------------------------------------------------|
B|---5---5---5---5---5---5---3---3---5---5---5---5---5---5---4---4--|
G|------------------------------------------------------------------|
D|-2---2---2---2---4---4---4---4------------------------------------|
A|---------------------------------3---3---3---3---2---2---2---2----|
D|------------------------------------------------------------------| X4

   (Guitar 2 - only first two lines of verse)
      Em      Asus     Cmaj7      B    Aadd9
e|-------------------------------------------|
B|--0-0-0-0--3-3-3-3--0-0-0-0--0-0-0-0--0-0--|
G|--0-0-0-0--2-2-2-2--0-0-0-0--4-4-4-4--2-2--|
D|--2-2-2-2--0-0-0-0--2-2-2-2--4-4-4-4--2-2--|
A|--2-2-2-2--0-0-0-0--3-3-3-3--2-2-2-2--0-0--|
D|-------------------------------------------| X3

   (Guitar 3 - starting with 2nd line of verse)
e|------------------------------------|
B|-----------12-10--------------------|
G|--9--11-12-------12-11----11-12-----|
D|-----------------------10-------9~--|
A|------------------------------------|
D|------------------------------------|

(BRIDGE)
  There's no reason to be afraid
  You cant blame youself
  For the worlds mistakes
  Now its time to let it go
 Aadd9   C   E    G    A               C
e|------------------------------------------------|
B|------------------------------------------------|
G|-2-----5----------------------------------------|
D|-2-----5---2----5----7-------10-10-10-10-10-10--|
A|-0-----3---2----5----7-------10-10-10-10-10-10--|
D|-----------2----5----7-------10-10-10-10-10-10--|

  (Guitar 2)
e|------------------------------------------------|
B|------------------------------------------------|
G|---5-7---5-------------5-4-7--------------------|
D|------------------------------------------------|
A|------------------------------------------------|
D|------------------------------------------------|

(CHORUS)
  Look out, look in and realize You always get so carried away
  Theres times and things you can never change Dont get so carried away
       E          D          A          C          B
e|-------------------------------------------------------|
B|-------------------------------------------------------|
G|-------------------------------------------------------|(2nd time through, play)
D|--2-2-2-2--12-12-12-12--7-7-7-7--10-10-10-10--9-9-9-9--|(a D instead of a B)
A|--2-2-2-2--12-12-12-12--7-7-7-7--10-10-10-10--9-9-9-9--|
D|--2-2-2-2--12-12-12-12--7-7-7-7--10-10-10-10--9-9-9-9--| X2

 (interlude - Guitar 1)
   Let ring...
e|------------------------------------------------------------------------------|
B|---------------5---5---5---5---5---5---3---3---5---5---5---5---5---5---4---4--|
G|------------------------------------------------------------------------------|
D|--9----------2---2---2---2---4---4---4---4------------------------------------|
A|--9------------------------------------------3---3---3---3---2---2---2---2----|
D|--9---------------------------------------------------------------------------|

(Interlude - Guitar 2) (timing isn't right)
e|-----------------------------------------|
B|-----------------------------------------|
G|-----------------5--------------5--------|
D|-----------5-7-8---8-7----5-7-8---7-5-4--|
A|-----------------------7-----------------|
D|-----------------------------------------|

(VERSE 2)
  Even now you hide behind Those imitations in your mind
  Through every act From the middle to the end You have played the part as your only friend
  You steal the rush From the hands of time And they'll never to catch up with you
e|------------------------------------------------------------------|
B|---5---5---5---5---5---5---3---3---5---5---5---5---5---5---4---4--|
G|------------------------------------------------------------------|
D|-2---2---2---2---4---4---4---4------------------------------------|
A|---------------------------------3---3---3---3---2---2---2---2----|
D|------------------------------------------------------------------| X3

(BRIDGE)
  There's no reason to be afraid
  You cant blame youself
  For the worlds mistakes
  Now its time to let it go
 Aadd9   C   E    G    A               C
e|------------------------------------------------|
B|------------------------------------------------|
G|-2-----5----------------------------------------|
D|-2-----5---2----5----7-------10-10-10-10-10-10--|
A|-0-----3---2----5----7-------10-10-10-10-10-10--|
D|-----------2----5----7-------10-10-10-10-10-10--|

  (Guitar 2)
e|------------------------------------------------|
B|------------------------------------------------|
G|---5-7---5-------------5-4-7--------------------|
D|------------------------------------------------|
A|------------------------------------------------|
D|------------------------------------------------|

(CHORUS)
  Look out, look in and realize You always get so carried away
  Theres times and things you can never change Dont get so carried away
       E          D          A          C          B
e|-------------------------------------------------------|
B|-------------------------------------------------------|
G|-------------------------------------------------------|(2nd time through, play)
D|--2-2-2-2--12-12-12-12--7-7-7-7--10-10-10-10--9-9-9-9--|(a D instead of a B)
A|--2-2-2-2--12-12-12-12--7-7-7-7--10-10-10-10--9-9-9-9--|
D|--2-2-2-2--12-12-12-12--7-7-7-7--10-10-10-10--9-9-9-9--| X2

(prelude to outro chorus) (I dont know what youd call this, it has odd placing)
  You need to find out whats for real
  And know how i wish you would understand
  And listen
    C   B  E  G  A  C   D   E
e|-----------------------------|
B|-----------------------------|
G|-----------------------------|
D|--10--9--2--5--7--10--12--2--|
A|--10--9--2--5--7--10--12--2--|
D|--10--9--2--5--7--10--12--2--|

(OUTRO - REPITITION OF CHORUS)
  Look out, look in and realize You always get so carried away...
e|------------------------------------------------------------------|
B|---5---5---5---5---5---5---3---3---5---5---5---5---5---5---4---4--|
G|------------------------------------------------------------------|
D|-2---2---2---2---4---4---4---4------------------------------------|
A|---------------------------------3---3---3---3---2---2---2---2----|
D|------------------------------------------------------------------|

Look out, look in and realize
You always get so carried away
Theres times and things you can never change
Dont get so carried away
Look out, look in and realize                  blah blah.....
You always get so carried away
Theres time and things you can never change
Dont get so carried away
       E          D          A          C          B
e|-------------------------------------------------------|
B|-------------------------------------------------------|
G|-------------------------------------------------------|(4th time through, play)
D|--2-2-2-2--12-12-12-12--7-7-7-7--10-10-10-10--9-9-9-9--|(a D instead of a B and hold it)
A|--2-2-2-2--12-12-12-12--7-7-7-7--10-10-10-10--9-9-9-9--|
D|--2-2-2-2--12-12-12-12--7-7-7-7--10-10-10-10--9-9-9-9--| X4
Tap to rate this tab
# A B C D E F G H I J K L M N O P Q R S T U V W X Y Z