Song name
# A B C D E F G H I J K L M N O P Q R S T U V W X Y Z

Shinedown - Devour tab

Song:Devour
Artist:Shinedown

TabbedbyEvilConsrvativ
Check out my cover of this song:  http://www.youtube.com/watch?v=r2EsOEK9IVg

Iamnot100%sureontheleadduringthechorus,butwhatItabbedfitsverywell.

TuningisdropC(C-G-C-F-A-D)

Legend:
~LetRing
bBend
.PalmMute
X  Left hand mute (or signifies number of repetitions)

(DrumsIntro)

Lead Guitar(0:11)

D|------------------------------|
A|------------------------------ |
F|-9-9-7-9-9-7-9-9-7-9-9-7-9-9-7 |
C|------------------------------|10X
G|------------------------------ |
C|------------------------------ |


Rhythm Guitar(0:17)

D|----|--------------------- |
A|----|--------------------- |
F|----|--------------------- |
C|-2~-|-2-----7-7-7-9-9-9-12 |  3 X
G|-2~-|-2-24x-5-5-5-7-7-7-10 |
C|-2~-|-2------------------- |
.

Verse  (0:38, Both Guitars)

D | ------------------------------- |       | ------------------------------------- |
A | ------------------------------- |       | ------------------------------------- |
F | ------------------------------- |       | -9-9-9-10-10-10-9-9-9-12-12-12-9-9-10 |
C | --------------------------7-7-7 |  3 X  | -X-X-X--X--X--X-X-X-X--X--X--X-X-X--X |  (Repeat)
G | --------------------------5-5-5 |       | -7-7-7--8--8--8-7-7-7-10-10-10-7-7--8 |
C | -2-2-0-2-2-0-2-2-0-2-2-0------- |       | ------------------------------------- |


Chorus   (1:01)

Lead

D | -13-----12-----13---------------12-12-12-13-13-13-12-12-12--------------13-----|
A | --X-16X--X-16X--X-16X--15-15-15----------------------------15-15-13-13---X-16X-|
F | -10------9-----10-------------------------------------------------------10-----|
C | -------------------------------------------------------------------------------|
G | -------------------------------------------------------------------------------|
C | -------------------------------------------------------------------------------|

D | -15-15-15-13-13-------------15-15-13-13-12-12--13----------------15-17-20 |
A | ----------------13-13-13-13---------------------X-16X------17-18--------- |
F | -----------------------------------------------10-------19--------------- |
C | ------------------------------------------------------------------------- |
G | ------------------------------------------------------------------------- |
C | ------------------------------------------------------------------------- |


Rhythm

D | ---------------------------------------------------------------------------------- |
A | ---------------------------------------------------------------------------------- |
F | ----------------------7--9--10--9--7--5-----------------------7--9--10--12--14--17 |
C | -3------5------7------X--X---X--X--X--X--3------5------7------X--X---X---X---X---X |
G | -3-16X--3-16X--5-16X--5--7---8--7--5--3--3-16X--3-16X--5-16X--5--7---8--10--12--15 |
C | -3---------------------------------------3---------------------------------------- |


Post-Chorus (1:22, Lead Guitar)

D|------------------------------- |
A|------------------------------- |
F|-9-9-7-9-9-7-9-9-7-9-9-7-9-9-9b |
C|-------------------------------|2 X
G|------------------------------- |
C|------------------------------- |


Verse (1:28, Both Guitars)

D | ------------------------------- |       | ------------------------------------- |
A | ------------------------------- |       | ------------------------------------- |
F | ------------------------------- |       | -9-9-9-10-10-10-9-9-9-12-12-12-9-9-10 |
C | --------------------------7-7-7 |  3 X  | -X-X-X--X--X--X-X-X-X--X--X--X-X-X--X |  (Repeat)
G | --------------------------5-5-5 |       | -7-7-7--8--8--8-7-7-7-10-10-10-7-7--8 |
C | -2-2-0-2-2-0-2-2-0-2-2-0------- |       | ------------------------------------- |


Chorus   (1:50)

Lead

D | -13-13-13-12-12-12-------13-13-13-12-12-12-13-13-15-15-15-13-13-13-12-12-12-12-|
A | -------------------13-13-------------------------------------------------------|
F | -------------------------------------------------------------------------------|
C | -------------------------------------------------------------------------------|
G | -------------------------------------------------------------------------------|
C | -------------------------------------------------------------------------------|

D | -------------12-12-13-13-13-12-12-12-------13-13-13-12-12-12-13-13----12-13----|
A | -13-13-15-15-------------------------13-13-------------------------15----------|
F | -------------------------------------------------------------------------------|
C | -------------------------------------------------------------------------------|
G | -------------------------------------------------------------------------------|
C | -------------------------------------------------------------------------------|

D | -12--------13-13-13-12-12-12-------13-13-13-12-12-12-13-13-15-15-15-13-13-13---|
A | ----15-13--------------------13-13---------------------------------------------|
F | -------------------------------------------------------------------------------|
C | -------------------------------------------------------------------------------|
G | -------------------------------------------------------------------------------|
C | -------------------------------------------------------------------------------|

D | -12-12-12-12--------------12-12-13-13-13-12-12-12--------13-13-13-12-12-12-13--|
A | -------------13-13-15-15--------------------------13-13------------------------|
F | -------------------------------------------------------------------------------|
C | -------------------------------------------------------------------------------|
G | -------------------------------------------------------------------------------|
C | -------------------------------------------------------------------------------|

D | -13----------15-17-20----------15-17-20----------15-17-20---------15-17-20 |
A | -------17-18-------------17-18-------------17-18------------17-18--------- |
F | ----19----------------19----------------19---------------19--------------- |
C | -------------------------------------------------------------------------- |
G | -------------------------------------------------------------------------- |
C | -------------------------------------------------------------------------- |

Rhythm

D | ------------------------------------------------------------ | --------------------- |
A | ------------------------------------------------------------ | --------------------- |
F | ----------------------7--9--10--9--7--5--------------------- | -7--9--10--12--14--17 |
C | -3------5------7------X--X---X--X--X--X--3------5------7---- | -X--X---X---X---X---X 
 4 X
G | -3-16X--3-16X--5-16X--5--7---8--7--5--3--3-16X--3-16X--5-16X | -5--7---8--10--12--15 |
C | -3---------------------------------------3------------------ | --------------------- |


Bridge (2:20, Both Guitars)

D | --------------------------------------------------------------- |
A | --------------------------------------------------------------- |
F | --------------------------------------------------------------- |
C | -3-0-0-0-0-0-0-0-3-0-0-0-0-0-0-0-3-0-0-0-0-0-0-0-5-5-5-7-7-7-10 |  4 X
G | -3-0-0-0-0-0-0-0-3-0-0-0-0-0-0-0-3-0-0-0-0-0-0-0-3-3-3-5-5-5--8 |
C | -3-0-0-0-0-0-0-0-3-0-0-0-0-0-0-0-3-0-0-0-0-0-0-0--------------- |
     . . . . . . . . . . . . . . . . . . . . . . . .

D | -------------------------------- |
A | -------------------------------- |
F | -------------------------------- |
C | -3-0-0-0-0-0-0-0-3-0-0-0-0-0-0-0 |
G | -3-0-0-0-0-0-0-0-3-0-0-0-0-0-0-0 |
C | -3-0-0-0-0-0-0-0-3-0-0-0-0-0-0-0 |
     . . . . . . . . . . . . . . . .


Chorus   (2:48)

Lead

D | -13-13-13-12-12-12-------13-13-13-12-12-12-13-13-15-15-15-13-13-13-12-12-12-12-|
A | -------------------13-13-------------------------------------------------------|
F | -------------------------------------------------------------------------------|
C | -------------------------------------------------------------------------------|
G | -------------------------------------------------------------------------------|
C | -------------------------------------------------------------------------------|

D | -------------12-12-13-13-13-12-12-12-------13-13-13-12-12-12-13-13----12-13----|
A | -13-13-15-15-------------------------13-13-------------------------15----------|
F | -------------------------------------------------------------------------------|
C | -------------------------------------------------------------------------------|
G | -------------------------------------------------------------------------------|
C | -------------------------------------------------------------------------------|

D | -12--------13-13-13-12-12-12-------13-13-13-12-12-12-13-13-15-15-15-13-13-13---|
A | ----15-13--------------------13-13---------------------------------------------|
F | -------------------------------------------------------------------------------|
C | -------------------------------------------------------------------------------|
G | -------------------------------------------------------------------------------|
C | -------------------------------------------------------------------------------|

D | -12-12-12-12--------------12-12-13-13-13-12-12-12--------13-13-13-12-12-12-13--|
A | -------------13-13-15-15--------------------------13-13------------------------|
F | -------------------------------------------------------------------------------|
C | -------------------------------------------------------------------------------|
G | -------------------------------------------------------------------------------|
C | -------------------------------------------------------------------------------|

D | -13----------15-17-20 |       | ----------15-17-20 |
A | -------17-18--------- |       | ----17-18--------- |
F | ----19--------------- |       | -19--------------- |
C | --------------------- |  2 X  | ------------------ |  3 X
G | --------------------- |       | ------------------ |
C | --------------------- |       | ------------------ |

Rhythm

D | ---------------------------------------------------------------------------------- |
A | ---------------------------------------------------------------------------------- |
F | ----------------------7--9--10--9--7--5-----------------------7--9--10--12--14--17 |
C | -3------5------7------X--X---X--X--X--X--3------5------7------X--X---X---X---X---X | 
2 X
G | -3-16X--3-16X--5-16X--5--7---8--7--5--3--3-16X--3-16X--5-16X--5--7---8--10--12--15 |
C | -3---------------------------------------3---------------------------------------- |

D | --------------------- |
A | --------------------- |
F | -7--9--10--12--14--17 |
C | -X--X---X---X---X---X | 3 X
G | -5--7---8--10--12--15 |
C | --------------------- |
Tap to rate this tab
# A B C D E F G H I J K L M N O P Q R S T U V W X Y Z